  0
SECTION
  2
HEADER
  9
$ACADVER
  1
AC1015
  9
$ACADMAINTVER
 70
               6
  9
$DWGCODEPAGE
  3
ANSI_932
  9
$INSBASE
 10
0.0
 20
0.0
 30
0.0
  9
$EXTMIN
 10
-9262.4677366527212
 20
-24527.832630063302
 30
-144.46250000000001
  9
$EXTMAX
 10
9360.4785146622853
 20
1426.2336499831999
 30
144.46250000000001
  9
$LIMMIN
 10
0.0
 20
0.0
  9
$LIMMAX
 10
0.0
 20
0.0
  9
$ORTHOMODE
 70
               0
  9
$REGENMODE
 70
               1
  9
$FILLMODE
 70
               1
  9
$QTEXTMODE
 70
               0
  9
$MIRRTEXT
 70
               1
  9
$LTSCALE
 40
508.0
  9
$ATTMODE
 70
               1
  9
$TEXTSIZE
 40
0.2
  9
$TRACEWID
 40
1.0
  9
$TEXTSTYLE
  7
Standard
  9
$CLAYER
  8
側面図
  9
$CELTYPE
  6
Continuous
  9
$CECOLOR
 62
             256
  9
$CELTSCALE
 40
1.0
  9
$DISPSILH
 70
               0
  9
$DIMSCALE
 40
1.0
  9
$DIMASZ
 40
0.18
  9
$DIMEXO
 40
0.0625
  9
$DIMDLI
 40
0.38
  9
$DIMRND
 40
0.0
  9
$DIMDLE
 40
0.0
  9
$DIMEXE
 40
0.18
  9
$DIMTP
 40
0.0
  9
$DIMTM
 40
0.0
  9
$DIMTXT
 40
0.18
  9
$DIMCEN
 40
0.09
  9
$DIMTSZ
 40
0.0
  9
$DIMTOL
 70
               0
  9
$DIMLIM
 70
               0
  9
$DIMTIH
 70
               1
  9
$DIMTOH
 70
               1
  9
$DIMSE1
 70
               0
  9
$DIMSE2
 70
               0
  9
$DIMTAD
 70
               0
  9
$DIMZIN
 70
               0
  9
$DIMBLK
  1

  9
$DIMASO
 70
               1
  9
$DIMSHO
 70
               1
  9
$DIMPOST
  1

  9
$DIMAPOST
  1

  9
$DIMALT
 70
               0
  9
$DIMALTD
 70
               2
  9
$DIMALTF
 40
25.399999999999999
  9
$DIMLFAC
 40
1.0
  9
$DIMTOFL
 70
               0
  9
$DIMTVP
 40
0.0
  9
$DIMTIX
 70
               0
  9
$DIMSOXD
 70
               0
  9
$DIMSAH
 70
               0
  9
$DIMBLK1
  1

  9
$DIMBLK2
  1

  9
$DIMSTYLE
  2
Standard
  9
$DIMCLRD
 70
               0
  9
$DIMCLRE
 70
               0
  9
$DIMCLRT
 70
               0
  9
$DIMTFAC
 40
1.0
  9
$DIMGAP
 40
0.09
  9
$DIMJUST
 70
               0
  9
$DIMSD1
 70
               0
  9
$DIMSD2
 70
               0
  9
$DIMTOLJ
 70
               1
  9
$DIMTZIN
 70
               0
  9
$DIMALTZ
 70
               0
  9
$DIMALTTZ
 70
               0
  9
$DIMUPT
 70
               0
  9
$DIMDEC
 70
               4
  9
$DIMTDEC
 70
               4
  9
$DIMALTU
 70
               2
  9
$DIMALTTD
 70
               2
  9
$DIMTXSTY
  7
Standard
  9
$DIMAUNIT
 70
               0
  9
$DIMADEC
 70
               0
  9
$DIMALTRND
 40
0.0
  9
$DIMAZIN
 70
               0
  9
$DIMDSEP
 70
               0
  9
$DIMATFIT
 70
               3
  9
$DIMFRAC
 70
               0
  9
$DIMLDRBLK
  1

  9
$DIMLUNIT
 70
               2
  9
$DIMLWD
 70
               0
  9
$DIMLWE
 70
               0
  9
$DIMTMOVE
 70
               0
  9
$LUNITS
 70
               2
  9
$LUPREC
 70
               4
  9
$SKETCHINC
 40
0.1
  9
$FILLETRAD
 40
0.0
  9
$AUNITS
 70
               0
  9
$AUPREC
 70
               0
  9
$MENU
  1
acad
  9
$ELEVATION
 40
0.0
  9
$PELEVATION
 40
0.0
  9
$THICKNESS
 40
0.0
  9
$LIMCHECK
 70
               0
  9
$CHAMFERA
 40
0.0
  9
$CHAMFERB
 40
0.0
  9
$CHAMFERC
 40
0.0
  9
$CHAMFERD
 40
0.0
  9
$SKPOLY
 70
               0
  9
$TDCREATE
 40
2456999.482187500
  9
$TDUCREATE
 40
0.000000000
  9
$TDUPDATE
 40
2456999.482187500
  9
$TDUUPDATE
 40
0.000000000
  9
$TDINDWG
 40
0.0000000000
  9
$TDUSRTIMER
 40
0.0000000000
  9
$USRTIMER
 70
               1
  9
$ANGBASE
 50
0.0
  9
$ANGDIR
 70
               0
  9
$PDMODE
 70
               1
  9
$PDSIZE
 40
-2.0
  9
$PLINEWID
 40
0.0
  9
$SPLFRAME
 70
               0
  9
$SPLINETYPE
 70
               6
  9
$SPLINESEGS
 70
               8
  9
$HANDSEED
  5
2AF
  9
$SURFTAB1
 70
               6
  9
$SURFTAB2
 70
               6
  9
$SURFTYPE
 70
               6
  9
$SURFU
 70
               6
  9
$SURFV
 70
               6
  9
$UCSBASE
  2

  9
$UCSNAME
  2

  9
$UCSORG
 10
0.0
 20
0.0
 30
0.0
  9
$UCSXDIR
 10
1.0
 20
0.0
 30
0.0
  9
$UCSYDIR
 10
0.0
 20
1.0
 30
0.0
  9
$UCSORTHOREF
  2

  9
$UCSORTHOVIEW
 70
               0
  9
$UCSORGTOP
 10
0.0
 20
0.0
 30
0.0
  9
$UCSORGBOTTOM
 10
0.0
 20
0.0
 30
0.0
  9
$UCSORGLEFT
 10
0.0
 20
0.0
 30
0.0
  9
$UCSORGRIGHT
 10
0.0
 20
0.0
 30
0.0
  9
$UCSORGFRONT
 10
0.0
 20
0.0
 30
0.0
  9
$UCSORGBACK
 10
0.0
 20
0.0
 30
0.0
  9
$PUCSBASE
  2

  9
$PUCSNAME
  2

  9
$PUCSORG
 10
0.0
 20
0.0
 30
0.0
  9
$PUCSXDIR
 10
1.0
 20
0.0
 30
0.0
  9
$PUCSYDIR
 10
0.0
 20
1.0
 30
0.0
  9
$PUCSORTHOREF
  2

  9
$PUCSORTHOVIEW
 70
               0
  9
$PUCSORGTOP
 10
0.0
 20
0.0
 30
0.0
  9
$PUCSORGBOTTOM
 10
0.0
 20
0.0
 30
0.0
  9
$PUCSORGLEFT
 10
0.0
 20
0.0
 30
0.0
  9
$PUCSORGRIGHT
 10
0.0
 20
0.0
 30
0.0
  9
$PUCSORGFRONT
 10
0.0
 20
0.0
 30
0.0
  9
$PUCSORGBACK
 10
0.0
 20
0.0
 30
0.0
  9
$USERI1
 70
               0
  9
$USERI2
 70
               0
  9
$USERI3
 70
               0
  9
$USERI4
 70
               0
  9
$USERI5
 70
               0
  9
$USERR1
 40
0.0
  9
$USERR2
 40
0.0
  9
$USERR3
 40
0.0
  9
$USERR4
 40
0.0
  9
$USERR5
 40
0.0
  9
$WORLDVIEW
 70
               1
  9
$SHADEDGE
 70
               3
  9
$SHADEDIF
 70
              70
  9
$TILEMODE
 70
               1
  9
$MAXACTVP
 70
              64
  9
$PINSBASE
 10
0.0
 20
0.0
 30
0.0
  9
$PLIMCHECK
 70
               0
  9
$PEXTMIN
 10
1.0000000000000000E+20
 20
1.0000000000000000E+20
 30
1.0000000000000000E+20
  9
$PEXTMAX
 10
-1.0000000000000000E+20
 20
-1.0000000000000000E+20
 30
-1.0000000000000000E+20
  9
$PLIMMIN
 10
0.0
 20
0.0
  9
$PLIMMAX
 10
12.0
 20
9.0
  9
$UNITMODE
 70
               0
  9
$VISRETAIN
 70
               0
  9
$PLINEGEN
 70
               1
  9
$PSLTSCALE
 70
               0
  9
$TREEDEPTH
 70
            3020
  9
$CMLSTYLE
  2
Standard
  9
$CMLJUST
 70
               0
  9
$CMLSCALE
 40
1.0
  9
$PROXYGRAPHICS
 70
               0
  9
$MEASUREMENT
 70
               1
  9
$CELWEIGHT
370
               0
  9
$ENDCAPS
280
               0
  9
$JOINSTYLE
280
               0
  9
$LWDISPLAY
290
               1
  9
$INSUNITS
 70
               4
  9
$HYPERLINKBASE
  1

  9
$STYLESHEET
  1

  9
$XEDIT
290
               1
  9
$CEPSNTYPE
380
               0
  9
$PSTYLEMODE
290
               1
  9
$FINGERPRINTGUID
  2

  9
$VERSIONGUID
  2

  9
$EXTNAMES
290
               1
  9
$PSVPSCALE
 40
0.0
  0
ENDSEC
  0
SECTION
  2
CLASSES
  0
CLASS
  1
LWPOLYLINE
  2
AcDbPolyline
  3
AutoCAD 2000
 90
        0
280
               0
281
               1
  0
CLASS
  1
IMAGE
  2
AcDbRasterImage
  3
ISM
 90
    32895
280
               0
281
               1
  0
CLASS
  1
OLE2FRAME
  2
AcDbOle2Frame
  3
AutoCAD 2000
 90
    32768
280
               0
281
               1
  0
CLASS
  1
HATCH
  2
AcDbHatch
  3
AutoCAD 2000
 90
    32768
280
               0
281
               1
  0
CLASS
  1
DICTIONARYVAR
  2
AcDbDictionaryVar
  3
AutoCAD 2000
 90
    32768
280
               0
281
               0
  0
CLASS
  1
RASTERVARIABLES
  2
AcDbRasterVariables
  3
ISM
 90
    32768
280
               0
281
               0
  0
CLASS
  1
IMAGEDEF
  2
AcDbRasterImageDef
  3
ISM
 90
    32768
280
               0
281
               0
  0
CLASS
  1
IMAGEDEF_REACTOR
  2
AcDbRasterImageDefReactor
  3
ISM
 90
    32769
280
               0
281
               0
  0
CLASS
  1
IDBUFFER
  2
AcDbIdBuffer
  3
AutoCAD 2000
 90
    32768
280
               0
281
               0
  0
CLASS
  1
SPATIAL_FILTER
  2
AcDbSpatialFilter
  3
AutoCAD 2000
 90
    32768
280
               0
281
               0
  0
CLASS
  1
XRECORD
  2
AcDbXrecord
  3
AutoCAD 2000
 90
    32768
280
               0
281
               0
  0
CLASS
  1
SORTENTSTABLE
  2
AcDbSortentsTable
  3
AutoCAD 2000
 90
    32768
280
               0
281
               0
  0
CLASS
  1
LAYER_INDEX
  2
AcDbLayerIndex
  3
AutoCAD 2000
 90
    32768
280
               0
281
               0
  0
CLASS
  1
SPATIAL_INDEX
  2
AcDbSpatialIndex
  3
AutoCAD 2000
 90
    32768
280
               0
281
               0
  0
CLASS
  1
OBJECT_PTR
  2
CAseDLPNTableRecord
  3
"ASE-LPNTableRecord"
 90
    32769
280
               0
281
               0
  0
CLASS
  1
LAYOUT
  2
AcDbLayout
  3
AutoCAD 2000
 90
        0
280
               0
281
               0
  0
CLASS
  1
PLOTSETTINGS
  2
AcDbPlotSettings
  3
AutoCAD 2000
 90
    32768
280
               0
281
               0
  0
CLASS
  1
ACDBDICTIONARYWDFLT
  2
AcDbDictionaryWithDefault
  3
AutoCAD 2000
 90
        0
280
               0
281
               0
  0
CLASS
  1
ACDBPLACEHOLDER
  2
AcDbPlaceHolder
  3
AutoCAD 2000
 90
        0
280
               0
281
               0
  0
CLASS
  1
VBA_PROJECT
  2
AcDbVbaProject
  3
acadvba
 90
    32768
280
               0
281
               0
  0
CLASS
  1
WIPEOUT
  2
AcDbWipeout
  3
WipeOut|AutoCAD Express Tool|expresstools@autodesk.com
 90
    32895
280
               0
281
               1
  0
CLASS
  1
WIPEOUTVARIABLES
  2
AcDbWipeoutVariables
  3
WipeOut|AutoCAD Express Tool|expresstools@autodesk.com
 90
        0
280
               0
281
               0
  0
CLASS
  1
RTEXT
  2
RText
  3
RText|AutoCAD Express Tool|expresstools@autodesk.com
 90
    32768
280
               0
281
               1
  0
CLASS
  1
ARCALIGNEDTEXT
  2
AcDbArcAlignedText
  3
ATEXT|AutoCAD Express Tool|expresstools@autodesk.com
 90
    32768
280
               0
281
               1
  0
ENDSEC
  0
SECTION
  2
TABLES
  0
TABLE
  2
VPORT
  5
7
100
AcDbSymbolTable
 70
               1
  0
VPORT
  5
15
100
AcDbSymbolTableRecord
100
AcDbViewportTableRecord
  2
*ACTIVE
 70
               0
 10
0.0
 20
0.0
 11
1.0
 21
1.0
 12
49.005389004782046
 22
-11550.799490040052
 13
0.0
 23
0.0
 14
1.0
 24
1.0
 15
0.0
 25
0.0
 16
0.0
 26
0.0
 36
1.0
 17
0.0
 27
0.0
 37
0.0
 40
25954.0662800465
 41
0.688564
 42
50.0
 43
0.0
 44
0.0
 50
0.0
 51
0.0
 71
               0
 72
            2000
 73
               1
 74
               1
 75
               0
 76
               0
 77
               0
 78
               0
281
               0
 65
               0
110
0.0
120
0.0
130
0.0
111
1.0
121
0.0
131
0.0
112
0.0
122
1.0
132
0.0
345
0
346
0
 79
               0
146
0.0
  0
ENDTAB
  0
TABLE
  2
LTYPE
  5
4
100
AcDbSymbolTable
 70
              13
  0
LTYPE
  5
11
100
AcDbSymbolTableRecord
100
AcDbLinetypeTableRecord
  2
ByBlock
 70
              64
  3

 72
              65
 73
               0
 40
0.0
  0
LTYPE
  5
12
100
AcDbSymbolTableRecord
100
AcDbLinetypeTableRecord
  2
ByLayer
 70
              64
  3

 72
              65
 73
               0
 40
0.0
  0
LTYPE
  5
13
100
AcDbSymbolTableRecord
100
AcDbLinetypeTableRecord
  2
Continuous
 70
              64
  3
Solid line
 72
              65
 73
               0
 40
0.0
  0
LTYPE
  5
2B
100
AcDbSymbolTableRecord
100
AcDbLinetypeTableRecord
  2
STYLE_01
 70
               0
  3

 72
              65
 73
               2
 40
0.41664
 49
0.20828
 74
               0
 49
-0.20836
 74
               0
  0
LTYPE
  5
2C
100
AcDbSymbolTableRecord
100
AcDbLinetypeTableRecord
  2
STYLE_02
 70
               0
  3

 72
              65
 73
               2
 40
0.6944250000000001
 49
0.48607
 74
               0
 49
-0.2083550000000001
 74
               0
  0
LTYPE
  5
2D
100
AcDbSymbolTableRecord
100
AcDbLinetypeTableRecord
  2
STYLE_03
 70
               0
  3

 72
              65
 73
               2
 40
1.25
 49
1.0416400000000001
 74
               0
 49
-0.2083599999999999
 74
               0
  0
LTYPE
  5
2E
100
AcDbSymbolTableRecord
100
AcDbLinetypeTableRecord
  2
STYLE_04
 70
               0
  3

 72
              65
 73
               2
 40
1.5277099999999999
 49
1.3194249999999998
 74
               0
 49
-0.208285
 74
               0
  0
LTYPE
  5
2F
100
AcDbSymbolTableRecord
100
AcDbLinetypeTableRecord
  2
STYLE_05
 70
               0
  3

 72
              65
 73
               2
 40
0.20828
 49
0.069425
 74
               0
 49
-0.138855
 74
               0
  0
LTYPE
  5
30
100
AcDbSymbolTableRecord
100
AcDbLinetypeTableRecord
  2
STYLE_06
 70
               0
  3

 72
              65
 73
               4
 40
1.0416400000000001
 49
0.625
 74
               0
 49
-0.20828
 74
               0
 49
0.06943
 74
               0
 49
-0.13893
 74
               0
  0
LTYPE
  5
31
100
AcDbSymbolTableRecord
100
AcDbLinetypeTableRecord
  2
STYLE_07
 70
               0
  3

 72
              65
 73
               6
 40
1.875
 49
0.625
 74
               0
 49
-0.20828
 74
               0
 49
0.6250000000000001
 74
               0
 49
-0.2083599999999999
 74
               0
 49
0.06943
 74
               0
 49
-0.1389299999999999
 74
               0
  0
LTYPE
  5
32
100
AcDbSymbolTableRecord
100
AcDbLinetypeTableRecord
  2
STYLE_08
 70
               0
  3

 72
              65
 73
               6
 40
1.25
 49
0.625
 74
               0
 49
-0.20828
 74
               0
 49
0.06943
 74
               0
 49
-0.13893
 74
               0
 49
0.0694299999999999
 74
               0
 49
-0.13893
 74
               0
  0
LTYPE
  5
33
100
AcDbSymbolTableRecord
100
AcDbLinetypeTableRecord
  2
STYLE_09
 70
               0
  3

 72
              65
 73
               4
 40
5.0
 49
3.75
 74
               0
 49
-0.2777849999999998
 74
               0
 49
0.6944300000000003
 74
               0
 49
-0.2777849999999998
 74
               0
  0
LTYPE
  5
34
100
AcDbSymbolTableRecord
100
AcDbLinetypeTableRecord
  2
STYLE_10
 70
               0
  3

 72
              65
 73
               6
 40
5.9375
 49
3.75
 74
               0
 49
-0.2777849999999998
 74
               0
 49
0.6944300000000003
 74
               0
 49
-0.2777849999999998
 74
               0
 49
0.625
 74
               0
 49
-0.3125
 74
               0
  0
ENDTAB
  0
TABLE
  2
LAYER
  5
2
100
AcDbSymbolTable
 70
               4
  0
LAYER
  5
14
100
AcDbSymbolTableRecord
100
AcDbLayerTableRecord
  2
0
 70
               0
 62
               7
  6
Continuous
290
               1
370
              -3
390
1D
  0
LAYER
  5
35
100
AcDbSymbolTableRecord
100
AcDbLayerTableRecord
  2
レイヤ-1
 70
               0
 62
               7
  6
Continuous
290
               1
370
              -3
390
1D
  0
LAYER
  5
36
100
AcDbSymbolTableRecord
100
AcDbLayerTableRecord
  2
反響板セット
 70
               0
 62
               7
  6
Continuous
290
               1
370
              -3
390
1D
  0
LAYER
  5
37
100
AcDbSymbolTableRecord
100
AcDbLayerTableRecord
  2
側面図
 70
               0
 62
               7
  6
Continuous
290
               1
370
              -3
390
1D
  0
ENDTAB
  0
TABLE
  2
STYLE
  5
3
100
AcDbSymbolTable
 70
               7
  0
STYLE
  5
17
100
AcDbSymbolTableRecord
100
AcDbTextStyleTableRecord
  2
Standard
 70
               0
 40
0.0
 41
1.0
 50
0.0
 71
               0
 42
0.0
  3
txt
  4
BIGFONT.SHX
  0
STYLE
  5
25
100
AcDbSymbolTableRecord
100
AcDbTextStyleTableRecord
  2
@ＭＳ ゴシック (bold)
 70
               0
 40
0.0
 41
1.0
 50
0.0
 71
               0
 42
0.0
  3

  4
@ＭＳ ゴシック
1001
ACAD
1000
@ＭＳ ゴシック
1071
 33554432
  0
STYLE
  5
26
100
AcDbSymbolTableRecord
100
AcDbTextStyleTableRecord
  2
HGPｺﾞｼｯｸM
 70
               0
 40
0.0
 41
1.0
 50
0.0
 71
               0
 42
0.0
  3

  4
HGPｺﾞｼｯｸM
1001
ACAD
1000
HGPｺﾞｼｯｸM
1071
        0
  0
STYLE
  5
27
100
AcDbSymbolTableRecord
100
AcDbTextStyleTableRecord
  2
HGSｺﾞｼｯｸM
 70
               0
 40
0.0
 41
1.0
 50
0.0
 71
               0
 42
0.0
  3

  4
HGSｺﾞｼｯｸM
1001
ACAD
1000
HGSｺﾞｼｯｸM
1071
        0
  0
STYLE
  5
28
100
AcDbSymbolTableRecord
100
AcDbTextStyleTableRecord
  2
System (bold)
 70
               0
 40
0.0
 41
1.0
 50
0.0
 71
               0
 42
0.0
  3

  4
System
1001
ACAD
1000
System
1071
 33554432
  0
STYLE
  5
29
100
AcDbSymbolTableRecord
100
AcDbTextStyleTableRecord
  2
ＭＳ ゴシック
 70
               0
 40
0.0
 41
1.0
 50
0.0
 71
               0
 42
0.0
  3

  4
ＭＳ ゴシック
1001
ACAD
1000
ＭＳ ゴシック
1071
        0
  0
STYLE
  5
2A
100
AcDbSymbolTableRecord
100
AcDbTextStyleTableRecord
  2
ＭＳ ゴシック (bold)
 70
               0
 40
0.0
 41
1.0
 50
0.0
 71
               0
 42
0.0
  3

  4
ＭＳ ゴシック
1001
ACAD
1000
ＭＳ ゴシック
1071
 33554432
  0
ENDTAB
  0
TABLE
  2
VIEW
  5
5
100
AcDbSymbolTable
 70
               0
  0
ENDTAB
  0
TABLE
  2
UCS
  5
6
100
AcDbSymbolTable
 70
               0
  0
ENDTAB
  0
TABLE
  2
APPID
  5
8
100
AcDbSymbolTable
 70
               1
  0
APPID
  5
16
100
AcDbSymbolTableRecord
100
AcDbRegAppTableRecord
  2
ACAD
 70
               0
  0
ENDTAB
  0
TABLE
  2
DIMSTYLE
  5
9
100
AcDbSymbolTable
 70
               1
100
AcDbDimStyleTable
 71
               0
  0
DIMSTYLE
105
18
100
AcDbSymbolTableRecord
100
AcDbDimStyleTableRecord
  2
Standard
 70
               0
  3

  4

 40
1.0
 41
0.18
 42
0.0625
 43
0.38
 44
0.18
 45
0.0
 46
0.0
 47
0.0
 48
0.0
 71
               0
 72
               0
 73
               1
 74
               1
 75
               0
 76
               0
 77
               0
 78
               0
 79
               0
140
0.18
141
0.09
142
0.0
143
25.399999999999999
144
1.0
145
0.0
146
1.0
147
0.09
148
0.0
170
               0
171
               2
172
               0
173
               0
174
               0
175
               0
176
               0
177
               0
178
               0
179
               0
271
               4
272
               4
273
               2
274
               2
275
               0
276
               0
277
               2
278
              46
279
               0
280
               0
281
               0
282
               0
283
               1
284
               0
285
               0
286
               0
288
               0
340
17
341
0
342
0
343
0
344
0
371
              -2
372
              -2
  0
ENDTAB
  0
TABLE
  2
BLOCK_RECORD
  5
1
100
AcDbSymbolTable
 70
               1
  0
BLOCK_RECORD
  5
A
100
AcDbSymbolTableRecord
100
AcDbBlockTableRecord
  2
*MODEL_SPACE
340
20
  0
BLOCK_RECORD
  5
B
100
AcDbSymbolTableRecord
100
AcDbBlockTableRecord
  2
*PAPER_SPACE
340
21
  0
BLOCK_RECORD
  5
24
100
AcDbSymbolTableRecord
100
AcDbBlockTableRecord
  2
グループ
340
0
102
{BLKREFS
331
2AE
102
}
  0
ENDTAB
  0
ENDSEC
  0
SECTION
  2
BLOCKS
  0
BLOCK
  5
D
100
AcDbEntity
  8
0
100
AcDbBlockBegin
  2
*MODEL_SPACE
 70
               0
 10
0.0
 20
0.0
 30
0.0
  3
*MODEL_SPACE
  1

  0
ENDBLK
  5
E
100
AcDbEntity
  8
0
100
AcDbBlockEnd
  0
BLOCK
  5
F
100
AcDbEntity
 67
               1
  8
0
100
AcDbBlockBegin
  2
*PAPER_SPACE
 70
               0
 10
0.0
 20
0.0
 30
0.0
  3
*PAPER_SPACE
  1

  0
ENDBLK
  5
10
100
AcDbEntity
 67
               1
  8
0
100
AcDbBlockEnd
  0
BLOCK
  5
38
100
AcDbEntity
  8
側面図
100
AcDbBlockBegin
  2
グループ
 70
               0
 10
0.0
 20
0.0
 30
0.0
  3
グループ
  1

  0
MTEXT
  5
39
100
AcDbEntity
  8
0
 62
               7
100
AcDbMText
 10
4963.7835858572626
 20
7979.0432274601762
 30
0.0
 40
135.7367621527778
 41
257.63203776060914
 71
               2
 72
               1
  1
バック幕\P
  7
HGPｺﾞｼｯｸM
 73
               1
 44
0.7828267384257842
  0
MTEXT
  5
3A
100
AcDbEntity
  8
0
 62
               7
100
AcDbMText
 10
4893.5467896333239
 20
7123.2873846496032
 30
0.0
 40
108.58940972222223
 41
180.0
 71
               1
 72
               1
  1
袖幕
  7
HGPｺﾞｼｯｸM
 73
               1
 44
0.7828267384257843
  0
MTEXT
  5
3B
100
AcDbEntity
  8
0
 62
               7
100
AcDbMText
 10
4907.2656866635243
 20
6750.2059427368777
 30
0.0
 40
108.58940972222223
 41
90.555555555555657
 71
               1
 72
               1
  1
（
  7
HGPｺﾞｼｯｸM
 11
0.0
 21
1.0
 31
0.0
 73
               1
 44
0.7828267384257843
  0
MTEXT
  5
3C
100
AcDbEntity
  8
0
 62
               7
100
AcDbMText
 10
4904.0115332873129
 20
7230.7614982924333
 30
0.0
 40
108.58940972222223
 41
90.555555555555657
 71
               1
 72
               1
  1
（
  7
HGPｺﾞｼｯｸM
210
0.0
220
0.0
230
-1.0
 11
0.0
 21
-1.0
 31
0.0
 73
               1
 44
0.7828267384257843
  0
ENDBLK
  5
3D
100
AcDbEntity
  8
側面図
100
AcDbBlockEnd
  0
ENDSEC
  0
SECTION
  2
ENTITIES
  0
LINE
  5
3E
100
AcDbEntity
  8
反響板セット
370
              15
  6
STYLE_02
 62
               7
100
AcDbLine
 10
3652.4628404180194
 20
-18243.451421534901
 30
0.0
 11
3652.4628404180194
 21
-23729.441714947301
 31
0.0
  0
LINE
  5
3F
100
AcDbEntity
  8
反響板セット
370
              15
  6
STYLE_02
 62
               7
100
AcDbLine
 10
3153.8770754153893
 20
-19939.5734652602
 30
0.0
 11
3352.6879986905788
 21
-21735.100970623098
 31
0.0
  0
LINE
  5
40
100
AcDbEntity
  8
反響板セット
370
              15
  6
STYLE_02
 62
               7
100
AcDbLine
 10
3153.8770754153893
 20
-18243.451421534901
 30
0.0
 11
3153.8770754153893
 21
-19939.5734652602
 31
0.0
  0
LINE
  5
41
100
AcDbEntity
  8
反響板セット
370
              15
  6
STYLE_02
 62
               7
100
AcDbLine
 10
3153.8770754153893
 20
-22732.2725006283
 30
0.0
 11
3153.8770754153893
 21
-23729.441714947301
 31
0.0
  0
LINE
  5
42
100
AcDbEntity
  8
反響板セット
370
              15
  6
STYLE_02
 62
               7
100
AcDbLine
 10
3652.4628404180194
 20
-18243.451421534901
 30
0.0
 11
3153.8770754153893
 21
-18243.451421534901
 31
0.0
  0
LINE
  5
43
100
AcDbEntity
  8
反響板セット
370
              15
  6
STYLE_02
 62
               7
100
AcDbLine
 10
3153.8770754153893
 20
-22732.2725006283
 30
0.0
 11
3352.6879986905788
 21
-21735.100970623098
 31
0.0
  0
LINE
  5
44
100
AcDbEntity
  8
反響板セット
370
              15
  6
STYLE_02
 62
               7
100
AcDbLine
 10
-4421.0411037358217
 20
-16018.8196045107
 30
0.0
 11
2634.7434680362785
 21
-18249.4930626266
 31
0.0
  0
LINE
  5
45
100
AcDbEntity
  8
反響板セット
370
              15
  6
STYLE_02
 62
               7
100
AcDbLine
 10
-4430.9000000000005
 20
-16502.9241485559
 30
0.0
 11
-4430.9000000000005
 21
-16015.0
 31
0.0
  0
LINE
  5
46
100
AcDbEntity
  8
反響板セット
370
              15
  6
STYLE_02
 62
               7
100
AcDbLine
 10
2636.5460031640587
 20
-18249.555262256701
 30
0.0
 11
2636.5460031640587
 21
-18755.629900040098
 31
0.0
  0
LINE
  5
47
100
AcDbEntity
  8
反響板セット
370
              15
  6
STYLE_02
 62
               7
100
AcDbLine
 10
-4052.9817395196415
 20
-16499.989070984298
 30
0.0
 11
-4426.5872088285423
 21
-16499.989070984298
 31
0.0
  0
LINE
  5
48
100
AcDbEntity
  8
反響板セット
370
              15
  6
STYLE_02
 62
               7
100
AcDbLine
 10
-1262.3661803367106
 20
-17302.419545915898
 30
0.0
 11
-1720.9663146055709
 21
-17302.419545915898
 31
0.0
  0
LINE
  5
49
100
AcDbEntity
  8
反響板セット
370
              15
  6
STYLE_02
 62
               7
100
AcDbLine
 10
1612.159233907749
 20
-18311.423398359701
 30
0.0
 11
1082.905058654869
 21
-18311.423398359701
 31
0.0
  0
LINE
  5
4A
100
AcDbEntity
  8
反響板セット
370
              15
  6
STYLE_02
 62
               7
100
AcDbLine
 10
2628.5488137216189
 20
-18749.627387922199
 30
0.0
 11
1617.5479096734286
 21
-18316.1793841043
 31
0.0
  0
LINE
  5
4B
100
AcDbEntity
  8
反響板セット
370
              15
  6
STYLE_02
 62
               7
100
AcDbLine
 10
-1262.3661803367106
 20
-17302.419545915898
 30
0.0
 11
1082.905058654869
 21
-18311.423398359701
 31
0.0
  0
LINE
  5
4C
100
AcDbEntity
  8
反響板セット
370
              15
  6
STYLE_02
 62
               7
100
AcDbLine
 10
-4052.9817395196415
 20
-16499.989070984298
 30
0.0
 11
-1720.9663146055709
 21
-17302.419545915898
 31
0.0
  0
LINE
  5
4D
100
AcDbEntity
  8
側面図
370
              15
  6
Continuous
 62
               7
100
AcDbLine
 10
7094.42105398884
 20
-23734.709223909598
 30
0.0
 11
7094.42105398884
 21
-16528.725359319698
 31
0.0
  0
LINE
  5
4E
100
AcDbEntity
  8
側面図
370
              15
  6
Continuous
 62
               7
100
AcDbLine
 10
6914.2467732756604
 20
-19770.306271028501
 30
0.0
 11
6914.2467732756604
 21
-16528.725359319698
 31
0.0
  0
LINE
  5
4F
100
AcDbEntity
  8
側面図
370
              15
  6
Continuous
 62
               7
100
AcDbLine
 10
6744.9469549719097
 20
-19770.306271028501
 30
0.0
 11
6744.9469549719097
 21
-20368.2974976687
 31
0.0
  0
LINE
  5
50
100
AcDbEntity
  8
側面図
370
              15
  6
Continuous
 62
               7
100
AcDbLine
 10
6196.6573013073903
 20
-19770.306271028501
 30
0.0
 11
6196.6573013073903
 21
-20368.2974976687
 31
0.0
  0
LINE
  5
51
100
AcDbEntity
  8
側面図
370
              15
  6
Continuous
 62
               7
100
AcDbLine
 10
6894.0586209576104
 20
-20368.2974976687
 30
0.0
 11
6176.4691489893603
 21
-20368.2974976687
 31
0.0
  0
LINE
  5
52
100
AcDbEntity
  8
側面図
370
              15
  6
Continuous
 62
               7
100
AcDbLine
 10
6914.2467732756604
 20
-19770.306271028501
 30
0.0
 11
6196.6573013073903
 21
-19770.306271028501
 31
0.0
  0
LINE
  5
53
100
AcDbEntity
  8
側面図
370
              15
  6
Continuous
 62
               7
100
AcDbLine
 10
6196.6573013073903
 20
-19781.178417751798
 30
0.0
 11
6176.4691489893603
 21
-19781.178417751798
 31
0.0
  0
LINE
  5
54
100
AcDbEntity
  8
側面図
370
              15
  6
Continuous
 62
               7
100
AcDbLine
 10
6176.4691489893603
 20
-19781.178417751798
 30
0.0
 11
6176.4691489893603
 21
-20368.2974976687
 31
0.0
  0
LINE
  5
55
100
AcDbEntity
  8
側面図
370
              15
  6
Continuous
 62
               7
100
AcDbLine
 10
6564.7726742587402
 20
-3932.0732265639499
 30
0.0
 11
6744.9469549719097
 21
-3932.0732265639499
 31
0.0
  0
LINE
  5
56
100
AcDbEntity
  8
側面図
370
              15
  6
Continuous
 62
               7
100
AcDbLine
 10
6744.9469549719097
 20
-3383.7835728994305
 30
0.0
 11
6744.9469549719097
 21
-3932.0732265639499
 31
0.0
  0
LINE
  5
57
100
AcDbEntity
  8
側面図
370
              15
  6
Continuous
 62
               7
100
AcDbLine
 10
6564.7726742587402
 20
-16528.725359319698
 30
0.0
 11
6564.7726742587402
 21
-19768.752445586299
 31
0.0
  0
LINE
  5
58
100
AcDbEntity
  8
側面図
370
              15
  6
Continuous
 62
               7
100
AcDbLine
 10
6614.4765629206504
 20
-16528.725359319698
 30
0.0
 11
6614.4765629206504
 21
-19768.752445586299
 31
0.0
  0
LINE
  5
59
100
AcDbEntity
  8
側面図
370
              15
  6
Continuous
 62
               7
100
AcDbLine
 10
6704.5613875910303
 20
-16528.725359319698
 30
0.0
 11
6704.5613875910303
 21
-19768.752445586299
 31
0.0
  0
LINE
  5
5A
100
AcDbEntity
  8
側面図
370
              15
  6
Continuous
 62
               7
100
AcDbLine
 10
6704.5613875910303
 20
-16528.725359319698
 30
0.0
 11
6704.5613875910303
 21
-19768.752445586299
 31
0.0
  0
LINE
  5
5B
100
AcDbEntity
  8
側面図
370
              15
  6
Continuous
 62
               7
100
AcDbLine
 10
6884.7356683042099
 20
-16528.725359319698
 30
0.0
 11
6884.7356683042099
 21
-19770.306271028501
 31
0.0
  0
LINE
  5
5C
100
AcDbEntity
  8
側面図
370
              15
  6
Continuous
 62
               7
100
AcDbLine
 10
-5573.6792608752203
 20
-5427.8258901994104
 30
0.0
 11
-5573.6792608752203
 21
-5023.9887418800899
 31
0.0
  0
LINE
  5
5D
100
AcDbEntity
  8
側面図
370
              15
  6
Continuous
 62
               7
100
AcDbLine
 10
-5573.6792608752203
 20
-8347.8899824205801
 30
0.0
 11
-5573.6792608752203
 21
-8747.0679700994006
 31
0.0
  0
LINE
  5
5E
100
AcDbEntity
  8
側面図
370
              15
  6
Continuous
 62
               7
100
AcDbLine
 10
6564.7726742587402
 20
-8198.7806321210792
 30
0.0
 11
6914.2467732756604
 21
-8198.7806321210792
 31
0.0
  0
LINE
  5
5F
100
AcDbEntity
  8
側面図
370
              15
  6
Continuous
 62
               7
100
AcDbLine
 10
6564.7726742587402
 20
-8747.0679700994006
 30
0.0
 11
6914.2467732756604
 21
-8747.0679700994006
 31
0.0
  0
LINE
  5
60
100
AcDbEntity
  8
側面図
370
              15
  6
Continuous
 62
               7
100
AcDbLine
 10
6744.9469549719097
 20
-8198.7806321210792
 30
0.0
 11
6744.9469549719097
 21
-8747.0679700994006
 31
0.0
  0
LINE
  5
61
100
AcDbEntity
  8
側面図
370
              15
  6
Continuous
 62
               7
100
AcDbLine
 10
6704.5613875910303
 20
-8198.7806321210792
 30
0.0
 11
6704.5613875910303
 21
-7622.5336989273401
 31
0.0
  0
LINE
  5
62
100
AcDbEntity
  8
側面図
370
              15
  6
Continuous
 62
               7
100
AcDbLine
 10
-5025.3896072107
 20
-6176.4802925813601
 30
0.0
 11
-5025.3896072107
 21
-5977.6693693061698
 31
0.0
  0
LINE
  5
63
100
AcDbEntity
  8
側面図
370
              15
  6
Continuous
 62
               7
100
AcDbLine
 10
-5025.3896072107
 20
-6176.4802925813601
 30
0.0
 11
-5373.3121964715901
 21
-6176.4802925813601
 31
0.0
  0
LINE
  5
64
100
AcDbEntity
  8
側面図
370
              15
  6
Continuous
 62
               7
100
AcDbLine
 10
6365.9617509835498
 20
-6176.4802925813601
 30
0.0
 11
6365.9617509835498
 21
-5977.6693693061698
 31
0.0
  0
LINE
  5
65
100
AcDbEntity
  8
側面図
370
              15
  6
Continuous
 62
               7
100
AcDbLine
 10
6365.9617509835498
 20
-5977.6693693061698
 30
0.0
 11
6564.7726742587402
 21
-5977.6693693061698
 31
0.0
  0
LINE
  5
66
100
AcDbEntity
  8
側面図
370
              15
  6
Continuous
 62
               7
100
AcDbLine
 10
6365.9617509835498
 20
-6176.4802925813601
 30
0.0
 11
6564.7726742587402
 21
-6176.4802925813601
 31
0.0
  0
LINE
  5
67
100
AcDbEntity
  8
側面図
370
              15
  6
Continuous
 62
               7
100
AcDbLine
 10
6564.7726742587402
 20
-5977.6693693061698
 30
0.0
 11
6564.7726742587402
 21
-3932.0732265639499
 31
0.0
  0
LINE
  5
68
100
AcDbEntity
  8
側面図
370
              15
  6
Continuous
 62
               7
100
AcDbLine
 10
6564.7726742587402
 20
-4879.53855222109
 30
0.0
 11
6914.2467732756604
 21
-4879.53855222109
 31
0.0
  0
LINE
  5
69
100
AcDbEntity
  8
側面図
370
              15
  6
Continuous
 62
               7
100
AcDbLine
 10
6614.4765629206504
 20
-4879.53855222109
 30
0.0
 11
6614.4765629206504
 21
-3932.0732265639499
 31
0.0
  0
LINE
  5
6A
100
AcDbEntity
  8
側面図
370
              15
  6
Continuous
 62
               7
100
AcDbLine
 10
6704.5613875910303
 20
-4879.53855222109
 30
0.0
 11
6704.5613875910303
 21
-3932.0732265639499
 31
0.0
  0
LINE
  5
6B
100
AcDbEntity
  8
側面図
370
              15
  6
Continuous
 62
               7
100
AcDbLine
 10
6704.5613875910303
 20
-4879.53855222109
 30
0.0
 11
6704.5613875910303
 21
-3932.0732265639499
 31
0.0
  0
LINE
  5
6C
100
AcDbEntity
  8
側面図
370
              15
  6
Continuous
 62
               7
100
AcDbLine
 10
6744.9469549719097
 20
-4879.53855222109
 30
0.0
 11
6744.9469549719097
 21
-5427.8258901994104
 31
0.0
  0
LINE
  5
6D
100
AcDbEntity
  8
側面図
370
              15
  6
Continuous
 62
               7
100
AcDbLine
 10
6914.2467732756604
 20
-6176.4802925813601
 30
0.0
 11
6564.7726742587402
 21
-6176.4802925813601
 31
0.0
  0
LINE
  5
6E
100
AcDbEntity
  8
側面図
370
              15
  6
Continuous
 62
               7
100
AcDbLine
 10
6914.2467732756604
 20
-6176.4802925813601
 30
0.0
 11
6914.2467732756604
 21
-8198.7806321210792
 31
0.0
  0
LINE
  5
6F
100
AcDbEntity
  8
側面図
370
              15
  6
Continuous
 62
               7
100
AcDbLine
 10
6884.7356683042099
 20
-8198.7806321210792
 30
0.0
 11
6884.7356683042099
 21
-6176.4802925813601
 31
0.0
  0
LINE
  5
70
100
AcDbEntity
  8
側面図
370
              15
  6
Continuous
 62
               7
100
AcDbLine
 10
6704.5613875910303
 20
-8198.7806321210792
 30
0.0
 11
6704.5613875910303
 21
-6176.4802925813601
 31
0.0
  0
LINE
  5
71
100
AcDbEntity
  8
側面図
370
              15
  6
Continuous
 62
               7
100
AcDbLine
 10
6704.5613875910303
 20
-7074.2440452628198
 30
0.0
 11
6704.5613875910303
 21
-6176.4802925813601
 31
0.0
  0
LINE
  5
72
100
AcDbEntity
  8
側面図
370
              15
  6
Continuous
 62
               7
100
AcDbLine
 10
6614.4765629206504
 20
-8198.7806321210792
 30
0.0
 11
6614.4765629206504
 21
-6176.4802925813601
 31
0.0
  0
LINE
  5
73
100
AcDbEntity
  8
側面図
370
              15
  6
Continuous
 62
               7
100
AcDbLine
 10
6744.9469549719097
 20
-5427.8258901994104
 30
0.0
 11
7094.42105398884
 21
-5427.8258901994104
 31
0.0
  0
LINE
  5
74
100
AcDbEntity
  8
側面図
370
              15
  6
Continuous
 62
               7
100
AcDbLine
 10
5468.1979983021001
 20
-5677.8968432649399
 30
0.0
 11
6564.7726742587402
 21
-5677.8968432649399
 31
0.0
  0
LINE
  5
75
100
AcDbEntity
  8
側面図
370
              15
  6
Continuous
 62
               7
100
AcDbLine
 10
5468.1979983021001
 20
-5727.5984162406403
 30
0.0
 11
6564.7726742587402
 21
-5727.5984162406403
 31
0.0
  0
LINE
  5
76
100
AcDbEntity
  8
側面図
370
              15
  6
Continuous
 62
               7
100
AcDbLine
 10
6555.4543529777402
 20
-8069.86174982582
 30
0.0
 11
6555.4543529777402
 21
-7074.2440452628198
 31
0.0
  0
LINE
  5
77
100
AcDbEntity
  8
側面図
370
              15
  6
Continuous
 62
               7
100
AcDbLine
 10
6555.4543529777402
 20
-5677.8968432649399
 30
0.0
 11
6555.4543529777402
 21
-4581.3198516221
 31
0.0
  0
LINE
  5
78
100
AcDbEntity
  8
側面図
370
              15
  6
Continuous
 62
               7
100
AcDbLine
 10
-5573.6792608752203
 20
-6235.5025025242703
 30
0.0
 11
-5573.6792608752203
 21
-5427.8258901994104
 31
0.0
  0
LINE
  5
79
100
AcDbEntity
  8
側面図
370
              15
  6
Continuous
 62
               7
100
AcDbLine
 10
-5485.1459459608604
 20
-6274.3342444629297
 30
0.0
 11
-5469.6123229109198
 21
-6274.3342444629297
 31
0.0
  0
LINE
  5
7A
100
AcDbEntity
  8
側面図
370
              15
  6
Continuous
 62
               7
100
AcDbLine
 10
-5469.6123229109198
 20
-6274.3342444629297
 30
0.0
 11
-5469.6123229109198
 21
-6299.1861887938803
 31
0.0
  0
LINE
  5
7B
100
AcDbEntity
  8
側面図
370
              15
  6
Continuous
 62
               7
100
AcDbLine
 10
-5469.6123229109198
 20
-6299.1861887938803
 30
0.0
 11
-5485.1459459608604
 21
-6299.1861887938803
 31
0.0
  0
LINE
  5
7C
100
AcDbEntity
  8
側面図
370
              15
  6
Continuous
 62
               7
100
AcDbLine
 10
-5485.1459459608604
 20
-6299.1861887938803
 30
0.0
 11
-5514.6570509323201
 21
-6299.1861887938803
 31
0.0
  0
LINE
  5
7D
100
AcDbEntity
  8
側面図
370
              15
  6
Continuous
 62
               7
100
AcDbLine
 10
-5514.6570509323201
 20
-6299.1861887938803
 30
0.0
 11
-5514.6570509323201
 21
-6314.7174961576302
 31
0.0
  0
LINE
  5
7E
100
AcDbEntity
  8
側面図
370
              15
  6
Continuous
 62
               7
100
AcDbLine
 10
-5514.6570509323201
 20
-6314.7174961576302
 30
0.0
 11
-5544.1681559037797
 21
-6314.7174961576302
 31
0.0
  0
LINE
  5
7F
100
AcDbEntity
  8
側面図
370
              15
  6
Continuous
 62
               7
100
AcDbLine
 10
-5544.1681559037797
 20
-6314.7174961576302
 30
0.0
 11
-5544.1681559037797
 21
-6299.1861887938803
 31
0.0
  0
LINE
  5
80
100
AcDbEntity
  8
側面図
370
              15
  6
Continuous
 62
               7
100
AcDbLine
 10
-5544.1681559037797
 20
-6299.1861887938803
 30
0.0
 11
-5589.21288392517
 21
-6299.1861887938803
 31
0.0
  0
LINE
  5
81
100
AcDbEntity
  8
側面図
370
              15
  6
Continuous
 62
               7
100
AcDbLine
 10
-5589.21288392517
 20
-6299.1861887938803
 30
0.0
 11
-5589.21288392517
 21
-6274.3342444629297
 31
0.0
  0
LINE
  5
82
100
AcDbEntity
  8
側面図
370
              15
  6
Continuous
 62
               7
100
AcDbLine
 10
-5589.21288392517
 20
-6274.3342444629297
 30
0.0
 11
-5573.6792608752203
 21
-6274.3342444629297
 31
0.0
  0
LINE
  5
83
100
AcDbEntity
  8
側面図
370
              15
  6
Continuous
 62
               7
100
AcDbLine
 10
-5514.6570509323201
 20
-8152.1820786574499
 30
0.0
 11
-5514.6570509323201
 21
-8166.1618762651597
 31
0.0
  0
LINE
  5
84
100
AcDbEntity
  8
側面図
370
              15
  6
Continuous
 62
               7
100
AcDbLine
 10
-5514.6570509323201
 20
-8166.1618762651597
 30
0.0
 11
-5469.6123229109198
 21
-8166.1618762651597
 31
0.0
  0
LINE
  5
85
100
AcDbEntity
  8
側面図
370
              15
  6
Continuous
 62
               7
100
AcDbLine
 10
-5589.21288392517
 20
-8166.1618762651597
 30
0.0
 11
-5544.1681559037797
 21
-8152.1820786574499
 31
0.0
  0
LINE
  5
86
100
AcDbEntity
  8
側面図
370
              15
  6
Continuous
 62
               7
100
AcDbLine
 10
-5544.1681559037797
 20
-8152.1820786574499
 30
0.0
 11
-5514.6570509323201
 21
-8152.1820786574499
 31
0.0
  0
LINE
  5
87
100
AcDbEntity
  8
側面図
370
              15
  6
Continuous
 62
               7
100
AcDbLine
 10
-5589.21288392517
 20
-6174.92878282533
 30
0.0
 11
-5573.6792608752203
 21
-6174.92878282533
 31
0.0
  0
LINE
  5
88
100
AcDbEntity
  8
側面図
370
              15
  6
Continuous
 62
               7
100
AcDbLine
 10
-5589.21288392517
 20
-6174.92878282533
 30
0.0
 11
-5589.21288392517
 21
-6274.3342444629297
 31
0.0
  0
LINE
  5
89
100
AcDbEntity
  8
側面図
370
              15
  6
Continuous
 62
               7
100
AcDbLine
 10
-5469.6123229109198
 20
-6274.3342444629297
 30
0.0
 11
-5373.3121964715901
 21
-6274.3342444629297
 31
0.0
  0
LINE
  5
8A
100
AcDbEntity
  8
側面図
370
              15
  6
Continuous
 62
               7
100
AcDbLine
 10
-5393.5049801620498
 20
-6235.5025025242703
 30
0.0
 11
-5393.5049801620498
 21
-6176.4802925813601
 31
0.0
  0
LINE
  5
8B
100
AcDbEntity
  8
側面図
370
              15
  6
Continuous
 62
               7
100
AcDbLine
 10
-5373.3121964715901
 20
-6274.3342444629297
 30
0.0
 11
-5373.3121964715901
 21
-6176.4802925813601
 31
0.0
  0
LINE
  5
8C
100
AcDbEntity
  8
側面図
370
              15
  6
Continuous
 62
               7
100
AcDbLine
 10
-5514.6570509323201
 20
-6235.5025025242703
 30
0.0
 11
-5544.1681559037797
 21
-6235.5025025242703
 31
0.0
  0
LINE
  5
8D
100
AcDbEntity
  8
側面図
370
              15
  6
Continuous
 62
               7
100
AcDbLine
 10
-5393.5049801620498
 20
-6235.5025025242703
 30
0.0
 11
-5573.6792608752203
 21
-6235.5025025242703
 31
0.0
  0
LINE
  5
8E
100
AcDbEntity
  8
側面図
370
              15
  6
Continuous
 62
               7
100
AcDbLine
 10
-5472.7199737953897
 20
-8169.2695271496204
 30
0.0
 11
-5472.7199737953897
 21
-6299.1861887938803
 31
0.0
  0
LINE
  5
8F
100
AcDbEntity
  8
側面図
370
              15
  6
Continuous
 62
               7
100
AcDbLine
 10
-5513.10554117628
 20
-8169.2695271496204
 30
0.0
 11
-5513.10554117628
 21
-6299.1861887938803
 31
0.0
  0
LINE
  5
90
100
AcDbEntity
  8
側面図
370
              15
  6
Continuous
 62
               7
100
AcDbLine
 10
-5513.10554117628
 20
-8169.2695271496204
 30
0.0
 11
-5513.10554117628
 21
-6299.1861887938803
 31
0.0
  0
LINE
  5
91
100
AcDbEntity
  8
側面図
370
              15
  6
Continuous
 62
               7
100
AcDbLine
 10
-5589.21288392517
 20
-6299.1861887938803
 30
0.0
 11
-5589.21288392517
 21
-8166.1618762651597
 31
0.0
  0
LINE
  5
92
100
AcDbEntity
  8
側面図
370
              15
  6
Continuous
 62
               7
100
AcDbLine
 10
-5373.3121964715901
 20
-6274.3342444629297
 30
0.0
 11
-5373.3121964715901
 21
-8161.5027156246497
 31
0.0
  0
LINE
  5
93
100
AcDbEntity
  8
側面図
370
              15
  6
Continuous
 62
               7
100
AcDbLine
 10
-6788.3029880900804
 20
-24159.718414955099
 30
0.0
 11
-6788.3029880900804
 21
-24268.444513559902
 31
0.0
  0
LINE
  5
94
100
AcDbEntity
  8
側面図
370
              15
  6
Continuous
 62
               7
100
AcDbLine
 10
-7435.9957877059996
 20
-23620.7505561008
 30
0.0
 11
-7386.2918990441003
 21
-23620.7505561008
 31
0.0
  0
LINE
  5
95
100
AcDbEntity
  8
側面図
370
              15
  6
Continuous
 62
               7
100
AcDbLine
 10
-7036.8178000271701
 20
-24527.832630063302
 30
0.0
 11
-7036.8178000271701
 21
-24033.907183544299
 31
0.0
  0
LINE
  5
96
100
AcDbEntity
  8
側面図
370
              15
  6
Continuous
 62
               7
100
AcDbLine
 10
-6987.1139113652698
 20
-24004.396078572801
 30
0.0
 11
-7007.3066950557304
 21
-24004.396078572801
 31
0.0
  0
LINE
  5
97
100
AcDbEntity
  8
側面図
370
              15
  6
Continuous
 62
               7
100
AcDbLine
 10
-6987.1139113652698
 20
-23974.884973601402
 30
0.0
 11
-6987.1139113652698
 21
-24004.396078572801
 31
0.0
  0
LINE
  5
98
100
AcDbEntity
  8
側面図
370
              15
  6
Continuous
 62
               7
100
AcDbLine
 10
-7036.8178000271701
 20
-24288.636139407201
 30
0.0
 11
-6808.4911404081404
 21
-24288.636139407201
 31
0.0
  0
LINE
  5
99
100
AcDbEntity
  8
側面図
370
              15
  6
Continuous
 62
               7
100
AcDbLine
 10
-7036.8178000271701
 20
-24139.526789107698
 30
0.0
 11
-6808.4911404081404
 21
-24139.526789107698
 31
0.0
  0
LINE
  5
9A
100
AcDbEntity
  8
側面図
370
              15
  6
Continuous
 62
               7
100
AcDbLine
 10
-7435.9957877059996
 20
-23620.7505561008
 30
0.0
 11
-7286.8841217202998
 21
-24288.636139407201
 31
0.0
  0
LINE
  5
9B
100
AcDbEntity
  8
側面図
370
              15
  6
Continuous
 62
               7
100
AcDbLine
 10
-7286.8841217202998
 20
-24288.636139407201
 30
0.0
 11
-7286.8841217202998
 21
-24526.279962464199
 31
0.0
  0
LINE
  5
9C
100
AcDbEntity
  8
側面図
370
              15
  6
Continuous
 62
               7
100
AcDbLine
 10
-7007.3066950557304
 20
-24004.396078572801
 30
0.0
 11
-7350.5701236761097
 21
-24004.396078572801
 31
0.0
  0
LINE
  5
9D
100
AcDbEntity
  8
側面図
370
              15
  6
Continuous
 62
               7
100
AcDbLine
 10
-6987.1139113652698
 20
-23974.884973601402
 30
0.0
 11
-7356.7807940726598
 21
-23974.884973601402
 31
0.0
  0
LINE
  5
9E
100
AcDbEntity
  8
側面図
370
              15
  6
Continuous
 62
               7
100
AcDbLine
 10
-5373.3121964715901
 20
-8756.3886070665994
 30
0.0
 11
-5214.8822092048904
 21
-8756.3886070665994
 31
0.0
  0
LINE
  5
9F
100
AcDbEntity
  8
側面図
370
              15
  6
Continuous
 62
               7
100
AcDbLine
 10
-5224.20516185831
 20
-8198.7806321210792
 30
0.0
 11
-5224.20516185831
 21
-8747.0679700994006
 31
0.0
  0
LINE
  5
A0
100
AcDbEntity
  8
側面図
370
              15
  6
Continuous
 62
               7
100
AcDbLine
 10
-5393.5049801620498
 20
-8747.0679700994006
 30
0.0
 11
-5224.20516185831
 21
-8747.0679700994006
 31
0.0
  0
LINE
  5
A1
100
AcDbEntity
  8
側面図
370
              15
  6
Continuous
 62
               7
100
AcDbLine
 10
-5214.8822092048904
 20
-8756.3886070665994
 30
0.0
 11
-5214.8822092048904
 21
-8198.7806321210792
 31
0.0
  0
LINE
  5
A2
100
AcDbEntity
  8
側面図
370
              15
  6
Continuous
 62
               7
100
AcDbLine
 10
-5469.6123229109198
 20
-8169.2695271496204
 30
0.0
 11
-5239.7341535358401
 21
-8169.2695271496204
 31
0.0
  0
LINE
  5
A3
100
AcDbEntity
  8
側面図
370
              15
  6
Continuous
 62
               7
100
AcDbLine
 10
-5239.7341535358401
 20
-7116.1811223997402
 30
0.0
 11
-5239.7341535358401
 21
-8169.2695271496204
 31
0.0
  0
LINE
  5
A4
100
AcDbEntity
  8
側面図
370
              15
  6
Continuous
 62
               7
100
AcDbLine
 10
-5239.7341535358401
 20
-8178.5878484306304
 30
0.0
 11
-5224.20516185831
 21
-8178.5878484306304
 31
0.0
  0
LINE
  5
A5
100
AcDbEntity
  8
側面図
370
              15
  6
Continuous
 62
               7
100
AcDbLine
 10
-5239.7341535358401
 20
-8169.2695271496204
 30
0.0
 11
-5239.7341535358401
 21
-8178.5878484306304
 31
0.0
  0
LINE
  5
A6
100
AcDbEntity
  8
側面図
370
              15
  6
Continuous
 62
               7
100
AcDbLine
 10
-5224.20516185831
 20
-8178.5878484306304
 30
0.0
 11
-5224.20516185831
 21
-8198.7806321210792
 31
0.0
  0
LINE
  5
A7
100
AcDbEntity
  8
側面図
370
              15
  6
Continuous
 62
               7
100
AcDbLine
 10
-5224.20516185831
 20
-8198.7806321210792
 30
0.0
 11
-5214.8822092048904
 21
-8198.7806321210792
 31
0.0
  0
LINE
  5
A8
100
AcDbEntity
  8
側面図
370
              15
  6
Continuous
 62
               7
100
AcDbLine
 10
6914.2467732756604
 20
-18638.005188331499
 30
0.0
 11
7095.9771951172897
 21
-18457.8309076183
 31
0.0
  0
LINE
  5
A9
100
AcDbEntity
  8
側面図
370
              15
  6
Continuous
 62
               7
100
AcDbLine
 10
6914.2467732756604
 20
-18743.623636051801
 30
0.0
 11
7094.42105398884
 21
-18563.449355338598
 31
0.0
  0
LINE
  5
AA
100
AcDbEntity
  8
側面図
370
              15
  6
Continuous
 62
               7
100
AcDbLine
 10
6914.2467732756604
 20
-18849.2420837721
 30
0.0
 11
7094.42105398884
 21
-18669.067803058999
 31
0.0
  0
LINE
  5
AB
100
AcDbEntity
  8
側面図
370
              15
  6
Continuous
 62
               7
100
AcDbLine
 10
6535.2615692872896
 20
-8149.0767434591799
 30
0.0
 11
6566.3241840147803
 21
-8118.0118130454903
 31
0.0
  0
LINE
  5
AC
100
AcDbEntity
  8
側面図
370
              15
  6
Continuous
 62
               7
100
AcDbLine
 10
-5224.20516185831
 20
-15950.9246006837
 30
0.0
 11
-5224.20516185831
 21
-8747.0679700994006
 31
0.0
  0
LINE
  5
AD
100
AcDbEntity
  8
側面図
370
              15
  6
Continuous
 62
               7
100
AcDbLine
 10
-5722.7909268609301
 20
-23928.287577980798
 30
0.0
 11
-5772.4901841504197
 21
-23928.287577980798
 31
0.0
  0
LINE
  5
AE
100
AcDbEntity
  8
側面図
370
              15
  6
Continuous
 62
               7
100
AcDbLine
 10
-5722.7909268609301
 20
-24527.832630063302
 30
0.0
 11
-5722.7909268609301
 21
-23928.287577980798
 31
0.0
  0
LINE
  5
AF
100
AcDbEntity
  8
側面図
370
              15
  6
Continuous
 62
               7
100
AcDbLine
 10
-5772.4901841504197
 20
-23928.287577980798
 30
0.0
 11
-5772.4901841504197
 21
-23729.474339019402
 31
0.0
  0
LINE
  5
B0
100
AcDbEntity
  8
側面図
370
              15
  6
Continuous
 62
               7
100
AcDbLine
 10
5968.3352730607603
 20
-2776.4717092920109
 30
0.0
 11
3633.8364353143302
 21
-2066.6490488486997
 31
0.0
  0
LINE
  5
B1
100
AcDbEntity
  8
側面図
370
              15
  6
Continuous
 62
               7
100
AcDbLine
 10
3633.8364353143302
 20
-2066.6490488486997
 30
0.0
 11
1210.8089140259799
 21
-1776.1971597746906
 31
0.0
  0
LINE
  5
B2
100
AcDbEntity
  8
側面図
370
              15
  6
Continuous
 62
               7
100
AcDbLine
 10
1210.8089140259799
 20
-1776.1971597746906
 30
0.0
 11
-1226.2007205563
 21
-1909.770571338031
 31
0.0
  0
LINE
  5
B3
100
AcDbEntity
  8
側面図
370
              15
  6
Continuous
 62
               7
100
AcDbLine
 10
-1226.2007205563
 20
-1909.770571338031
 30
0.0
 11
-3601.0851256836095
 21
-2467.3785462835604
 31
0.0
  0
LINE
  5
B4
100
AcDbEntity
  8
側面図
370
              15
  6
Continuous
 62
               7
100
AcDbLine
 10
5931.0573565643399
 20
-2868.1126750908297
 30
0.0
 11
3613.64365162389
 21
-2164.5006850440695
 31
0.0
  0
LINE
  5
B5
100
AcDbEntity
  8
側面図
370
              15
  6
Continuous
 62
               7
100
AcDbLine
 10
3613.64365162389
 20
-2164.5006850440695
 30
0.0
 11
1207.70126314151
 21
-1875.6003057260696
 31
0.0
  0
LINE
  5
B6
100
AcDbEntity
  8
側面図
370
              15
  6
Continuous
 62
               7
100
AcDbLine
 10
1207.70126314151
 20
-1875.6003057260696
 30
0.0
 11
-1210.67172887876
 21
-2009.1783486618297
 31
0.0
  0
LINE
  5
B7
100
AcDbEntity
  8
側面図
370
              15
  6
Continuous
 62
               7
100
AcDbLine
 10
-1210.67172887876
 20
-2009.1783486618297
 30
0.0
 11
-3570.0178795837301
 21
-2562.127162966859
 31
0.0
  0
LINE
  5
B8
100
AcDbEntity
  8
側面図
370
              15
  6
Continuous
 62
               7
100
AcDbLine
 10
5876.6943072619297
 20
-3006.3498786670789
 30
0.0
 11
3582.5810368963998
 21
-2310.5047001453004
 31
0.0
  0
LINE
  5
B9
100
AcDbEntity
  8
側面図
370
              15
  6
Continuous
 62
               7
100
AcDbLine
 10
3582.5810368963998
 20
-2310.5047001453004
 30
0.0
 11
1203.042102501
 21
-2024.7119717117694
 31
0.0
  0
LINE
  5
BA
100
AcDbEntity
  8
側面図
370
              15
  6
Continuous
 62
               7
100
AcDbLine
 10
1203.042102501
 20
-2024.7119717117694
 30
0.0
 11
-1190.47894518832
 21
-2156.7338735190897
 31
0.0
  0
LINE
  5
BB
100
AcDbEntity
  8
側面図
370
              15
  6
Continuous
 62
               7
100
AcDbLine
 10
-1190.47894518832
 20
-2156.7338735190897
 30
0.0
 11
-3523.4216418063002
 21
-2703.4720174275899
 31
0.0
  0
LINE
  5
BC
100
AcDbEntity
  8
側面図
370
              15
  6
Continuous
 62
               7
100
AcDbLine
 10
6946.8655291315799
 20
-3383.7835728994305
 30
0.0
 11
6744.9469549719097
 21
-3383.7835728994305
 31
0.0
  0
LINE
  5
BD
100
AcDbEntity
  8
側面図
370
              15
  6
Continuous
 62
               7
100
AcDbLine
 10
6564.7726742587402
 20
-3932.0732265639499
 30
0.0
 11
6564.7726742587402
 21
-3355.8239776840092
 31
0.0
  0
LINE
  5
BE
100
AcDbEntity
  8
側面図
370
              15
  6
Continuous
 62
               7
100
AcDbLine
 10
6564.7726742587402
 20
-3932.0732265639499
 30
0.0
 11
6564.7726742587402
 21
-3355.8239776840092
 31
0.0
  0
LINE
  5
BF
100
AcDbEntity
  8
側面図
370
              15
  6
Continuous
 62
               7
100
AcDbLine
 10
5876.6943072619297
 20
-3006.3498786670789
 30
0.0
 11
6564.7726742587402
 21
-3355.8239776840092
 31
0.0
  0
LINE
  5
C0
100
AcDbEntity
  8
側面図
370
              15
  6
Continuous
 62
               7
100
AcDbLine
 10
760.37089655681496
 20
-1900.4522500570292
 30
0.0
 11
757.99877882519797
 21
-1900.4522500570292
 31
0.0
  0
LINE
  5
C1
100
AcDbEntity
  8
側面図
370
              15
  6
Continuous
 62
               7
100
AcDbLine
 10
-5107.7122517285397
 20
-3383.7835728994305
 30
0.0
 11
6564.7726742587402
 21
-3383.7835728994305
 31
0.0
  0
LINE
  5
C2
100
AcDbEntity
  8
側面図
370
              15
  6
Continuous
 62
               7
100
AcDbLine
 10
660.96311923301801
 20
-1810.0432307484298
 30
0.0
 11
660.96311923301801
 21
-3383.7835728994305
 31
0.0
  0
LINE
  5
C3
100
AcDbEntity
  8
側面図
370
              15
  6
Continuous
 62
               7
100
AcDbLine
 10
859.77867388060997
 20
-1797.8701343376706
 30
0.0
 11
859.77867388060997
 21
-3383.7835728994305
 31
0.0
  0
LINE
  5
C4
100
AcDbEntity
  8
側面図
370
              15
  6
Continuous
 62
               7
100
AcDbLine
 10
3852.8401422799898
 20
-2132.6302856335897
 30
0.0
 11
3852.8401422799898
 21
-3383.7835728994305
 31
0.0
  0
LINE
  5
C5
100
AcDbEntity
  8
側面図
370
              15
  6
Continuous
 62
               7
100
AcDbLine
 10
3654.0292190047899
 20
-2074.8080776824791
 30
0.0
 11
3654.0292190047899
 21
-3383.7835728994305
 31
0.0
  0
LINE
  5
C6
100
AcDbEntity
  8
側面図
370
              15
  6
Continuous
 62
               7
100
AcDbLine
 10
-2133.2874258911602
 20
-2130.446178651011
 30
0.0
 11
-2133.2874258911602
 21
-3383.7835728994305
 31
0.0
  0
LINE
  5
C7
100
AcDbEntity
  8
側面図
370
              15
  6
Continuous
 62
               7
100
AcDbLine
 10
-2332.0983491663501
 20
-2170.952156957821
 30
0.0
 11
-2332.0983491663501
 21
-3383.7835728994305
 31
0.0
  0
LINE
  5
C8
100
AcDbEntity
  8
側面図
370
              15
  6
Continuous
 62
               7
100
AcDbLine
 10
3654.5402654153399
 20
-2682.544483831789
 30
0.0
 11
1136.25308103312
 21
-3383.7835728994305
 31
0.0
  0
LINE
  5
C9
100
AcDbEntity
  8
側面図
370
              15
  6
Continuous
 62
               7
100
AcDbLine
 10
-2134.7207298844401
 20
-2725.0888115376692
 30
0.0
 11
365.85206951849398
 21
-3383.7835728994305
 31
0.0
  0
LINE
  5
CA
100
AcDbEntity
  8
側面図
370
              15
  6
Continuous
 62
               7
100
AcDbLine
 10
3649.7266424469699
 20
-2529.7457112096999
 30
0.0
 11
859.77867388060997
 21
-3306.1200890221007
 31
0.0
  0
LINE
  5
CB
100
AcDbEntity
  8
側面図
370
              15
  6
Continuous
 62
               7
100
AcDbLine
 10
-2126.3992530959899
 20
-2571.4553718814204
 30
0.0
 11
660.96311923301801
 21
-3306.1200890221007
 31
0.0
  0
LINE
  5
CC
100
AcDbEntity
  8
側面図
370
              15
  6
Continuous
 62
               7
100
AcDbLine
 10
7094.42105398884
 20
-12131.545246025
 30
0.0
 11
7094.42105398884
 21
-11583.2579080467
 31
0.0
  0
LINE
  5
CD
100
AcDbEntity
  8
側面図
370
              15
  6
Continuous
 62
               7
100
AcDbLine
 10
7094.42105398884
 20
-11583.2579080467
 30
0.0
 11
6744.9469549719097
 21
-11583.2579080467
 31
0.0
  0
LINE
  5
CE
100
AcDbEntity
  8
側面図
370
              15
  6
Continuous
 62
               7
100
AcDbLine
 10
6744.9469549719097
 20
-12131.545246025
 30
0.0
 11
7094.42105398884
 21
-12131.545246025
 31
0.0
  0
LINE
  5
CF
100
AcDbEntity
  8
側面図
370
              15
  6
Continuous
 62
               7
100
AcDbLine
 10
-5224.20516185831
 20
-12131.545246025
 30
0.0
 11
-5224.20516185831
 21
-11583.2579080467
 31
0.0
  0
LINE
  5
D0
100
AcDbEntity
  8
側面図
370
              15
  6
Continuous
 62
               7
100
AcDbLine
 10
-5573.6792608752203
 20
-11583.2579080467
 30
0.0
 11
-5573.6792608752203
 21
-12131.545246025
 31
0.0
  0
LINE
  5
D1
100
AcDbEntity
  8
側面図
370
              15
  6
Continuous
 62
               7
100
AcDbLine
 10
7094.42105398884
 20
-12131.545246025
 30
0.0
 11
7094.42105398884
 21
-15980.4357056551
 31
0.0
  0
LINE
  5
D2
100
AcDbEntity
  8
側面図
370
              15
  6
Continuous
 62
               7
100
AcDbLine
 10
6564.7726742587402
 20
-11583.2579080467
 30
0.0
 11
6564.7726742587402
 21
-12131.545246025
 31
0.0
  0
LINE
  5
D3
100
AcDbEntity
  8
側面図
370
              15
  6
Continuous
 62
               7
100
AcDbLine
 10
6564.7726742587402
 20
-11583.2579080467
 30
0.0
 11
6564.7726742587402
 21
-12131.545246025
 31
0.0
  0
LINE
  5
D4
100
AcDbEntity
  8
側面図
370
              15
  6
Continuous
 62
               7
100
AcDbLine
 10
6564.7726742587402
 20
-12131.545246025
 30
0.0
 11
6744.9469549719097
 21
-12131.545246025
 31
0.0
  0
LINE
  5
D5
100
AcDbEntity
  8
側面図
370
              15
  6
Continuous
 62
               7
100
AcDbLine
 10
6564.7726742587402
 20
-11583.2579080467
 30
0.0
 11
6744.9469549719097
 21
-11583.2579080467
 31
0.0
  0
LINE
  5
D6
100
AcDbEntity
  8
側面図
370
              15
  6
Continuous
 62
               7
100
AcDbLine
 10
6744.9469549719097
 20
-11583.2579080467
 30
0.0
 11
6744.9469549719097
 21
-12131.545246025
 31
0.0
  0
LINE
  5
D7
100
AcDbEntity
  8
側面図
370
              15
  6
Continuous
 62
               7
100
AcDbLine
 10
6704.5613875910303
 20
-12131.545246025
 30
0.0
 11
6704.5613875910303
 21
-13158.2278810017
 31
0.0
  0
LINE
  5
D8
100
AcDbEntity
  8
側面図
370
              15
  6
Continuous
 62
               7
100
AcDbLine
 10
7144.1249426507502
 20
-12131.545246025
 30
0.0
 11
7144.1249426507502
 21
-11583.2579080467
 31
0.0
  0
LINE
  5
D9
100
AcDbEntity
  8
側面図
370
              15
  6
Continuous
 62
               7
100
AcDbLine
 10
7144.1249426507502
 20
-12131.545246025
 30
0.0
 11
7144.1249426507502
 21
-15980.4357056551
 31
0.0
  0
LINE
  5
DA
100
AcDbEntity
  8
側面図
370
              15
  6
Continuous
 62
               7
100
AcDbLine
 10
6614.4765629206504
 20
-11583.2579080467
 30
0.0
 11
6614.4765629206504
 21
-8747.0679700994006
 31
0.0
  0
LINE
  5
DB
100
AcDbEntity
  8
側面図
370
              15
  6
Continuous
 62
               7
100
AcDbLine
 10
6704.5613875910303
 20
-11583.2579080467
 30
0.0
 11
6704.5613875910303
 21
-8747.0679700994006
 31
0.0
  0
LINE
  5
DC
100
AcDbEntity
  8
側面図
370
              15
  6
Continuous
 62
               7
100
AcDbLine
 10
6884.7356683042099
 20
-11583.2579080467
 30
0.0
 11
6884.7356683042099
 21
-8747.0679700994006
 31
0.0
  0
LINE
  5
DD
100
AcDbEntity
  8
側面図
370
              15
  6
Continuous
 62
               7
100
AcDbLine
 10
6914.2467732756604
 20
-11583.2579080467
 30
0.0
 11
6914.2467732756604
 21
-8747.0679700994006
 31
0.0
  0
LINE
  5
DE
100
AcDbEntity
  8
側面図
370
              15
  6
Continuous
 62
               7
100
AcDbLine
 10
6704.5613875910303
 20
-11583.2579080467
 30
0.0
 11
6704.5613875910303
 21
-8747.0679700994006
 31
0.0
  0
LINE
  5
DF
100
AcDbEntity
  8
側面図
370
              15
  6
Continuous
 62
               7
100
AcDbLine
 10
-5373.3121964715901
 20
-8756.3886070665994
 30
0.0
 11
-5373.3121964715901
 21
-11583.2579080467
 31
0.0
  0
LINE
  5
E0
100
AcDbEntity
  8
側面図
370
              15
  6
Continuous
 62
               7
100
AcDbLine
 10
-5393.5049801620498
 20
-8747.0679700994006
 30
0.0
 11
-5393.5049801620498
 21
-11583.2579080467
 31
0.0
  0
LINE
  5
E1
100
AcDbEntity
  8
側面図
370
              15
  6
Continuous
 62
               7
100
AcDbLine
 10
6564.7726742587402
 20
-11583.2579080467
 30
0.0
 11
6564.7726742587402
 21
-6176.4802925813601
 31
0.0
  0
LINE
  5
E2
100
AcDbEntity
  8
側面図
370
              15
  6
Continuous
 62
               7
100
AcDbLine
 10
-5573.6792608752203
 20
-8747.0679700994006
 30
0.0
 11
-5573.6792608752203
 21
-11583.2579080467
 31
0.0
  0
LINE
  5
E3
100
AcDbEntity
  8
側面図
370
              15
  6
Continuous
 62
               7
100
AcDbLine
 10
-5373.3121964715901
 20
-11583.2579080467
 30
0.0
 11
-5224.20516185831
 21
-11583.2579080467
 31
0.0
  0
LINE
  5
E4
100
AcDbEntity
  8
側面図
370
              15
  6
Continuous
 62
               7
100
AcDbLine
 10
6914.2467732756604
 20
-12476.360184401499
 30
0.0
 11
7095.9771951172897
 21
-12294.6343939322
 31
0.0
  0
LINE
  5
E5
100
AcDbEntity
  8
側面図
370
              15
  6
Continuous
 62
               7
100
AcDbLine
 10
6914.2467732756604
 20
-12581.980947808001
 30
0.0
 11
7094.42105398884
 21
-12401.806667094799
 31
0.0
  0
LINE
  5
E6
100
AcDbEntity
  8
側面図
370
              15
  6
Continuous
 62
               7
100
AcDbLine
 10
6914.2467732756604
 20
-12687.599395528299
 30
0.0
 11
7094.42105398884
 21
-12507.4251148151
 31
0.0
  0
LINE
  5
E7
100
AcDbEntity
  8
側面図
370
              15
  6
Continuous
 62
               7
100
AcDbLine
 10
7094.42105398884
 20
-16528.725359319698
 30
0.0
 11
7094.42105398884
 21
-15980.4357056551
 31
0.0
  0
LINE
  5
E8
100
AcDbEntity
  8
側面図
370
              15
  6
Continuous
 62
               7
100
AcDbLine
 10
6744.9469549719097
 20
-16528.725359319698
 30
0.0
 11
7094.42105398884
 21
-16528.725359319698
 31
0.0
  0
LINE
  5
E9
100
AcDbEntity
  8
側面図
370
              15
  6
Continuous
 62
               7
100
AcDbLine
 10
6564.7726742587402
 20
-16528.725359319698
 30
0.0
 11
6744.9469549719097
 21
-16528.725359319698
 31
0.0
  0
LINE
  5
EA
100
AcDbEntity
  8
側面図
370
              15
  6
Continuous
 62
               7
100
AcDbLine
 10
6744.9469549719097
 20
-15980.4357056551
 30
0.0
 11
6744.9469549719097
 21
-16528.725359319698
 31
0.0
  0
LINE
  5
EB
100
AcDbEntity
  8
側面図
370
              15
  6
Continuous
 62
               7
100
AcDbLine
 10
6744.9469549719097
 20
-15980.4357056551
 30
0.0
 11
7094.42105398884
 21
-15980.4357056551
 31
0.0
  0
LINE
  5
EC
100
AcDbEntity
  8
側面図
370
              15
  6
Continuous
 62
               7
100
AcDbLine
 10
6915.8029144041102
 20
-15146.3556392433
 30
0.0
 11
7095.9771951172897
 21
-14966.181358530101
 31
0.0
  0
LINE
  5
ED
100
AcDbEntity
  8
側面図
370
              15
  6
Continuous
 62
               7
100
AcDbLine
 10
6915.8029144041102
 20
-15251.974086963601
 30
0.0
 11
7094.42105398884
 21
-15073.3536316927
 31
0.0
  0
LINE
  5
EE
100
AcDbEntity
  8
側面図
370
              15
  6
Continuous
 62
               7
100
AcDbLine
 10
6915.8029144041102
 20
-15357.592534683899
 30
0.0
 11
7094.42105398884
 21
-15178.972079413001
 31
0.0
  0
LINE
  5
EF
100
AcDbEntity
  8
側面図
370
              15
  6
Continuous
 62
               7
100
AcDbLine
 10
6564.7726742587402
 20
-15801.815250384199
 30
0.0
 11
6914.2467732756604
 21
-15801.815250384199
 31
0.0
  0
LINE
  5
F0
100
AcDbEntity
  8
側面図
370
              15
  6
Continuous
 62
               7
100
AcDbLine
 10
6614.4765629206504
 20
-12131.545246025
 30
0.0
 11
6614.4765629206504
 21
-15801.815250384199
 31
0.0
  0
LINE
  5
F1
100
AcDbEntity
  8
側面図
370
              15
  6
Continuous
 62
               7
100
AcDbLine
 10
6704.5613875910303
 20
-13706.515218980099
 30
0.0
 11
6704.5613875910303
 21
-15801.815250384199
 31
0.0
  0
LINE
  5
F2
100
AcDbEntity
  8
側面図
370
              15
  6
Continuous
 62
               7
100
AcDbLine
 10
6884.7356683042099
 20
-12131.545246025
 30
0.0
 11
6884.7356683042099
 21
-15801.815250384199
 31
0.0
  0
LINE
  5
F3
100
AcDbEntity
  8
側面図
370
              15
  6
Continuous
 62
               7
100
AcDbLine
 10
6564.7726742587402
 20
-12131.545246025
 30
0.0
 11
6564.7726742587402
 21
-16528.725359319698
 31
0.0
  0
LINE
  5
F4
100
AcDbEntity
  8
側面図
370
              15
  6
Continuous
 62
               7
100
AcDbLine
 10
6704.5613875910303
 20
-12131.545246025
 30
0.0
 11
6704.5613875910303
 21
-15801.815250384199
 31
0.0
  0
LINE
  5
F5
100
AcDbEntity
  8
側面図
370
              15
  6
Continuous
 62
               7
100
AcDbLine
 10
6914.2467732756604
 20
-12131.545246025
 30
0.0
 11
6914.2467732756604
 21
-15801.815250384199
 31
0.0
  0
LINE
  5
F6
100
AcDbEntity
  8
側面図
370
              15
  6
Continuous
 62
               7
100
AcDbLine
 10
-5573.6792608752203
 20
-16050.332378007501
 30
0.0
 11
-4975.6857185487997
 21
-16050.332378007501
 31
0.0
  0
LINE
  5
F7
100
AcDbEntity
  8
側面図
370
              15
  6
Continuous
 62
               7
100
AcDbLine
 10
6914.2467732756604
 20
-20368.2974976687
 30
0.0
 11
6914.2467732756604
 21
-23735.457889108799
 31
0.0
  0
LINE
  5
F8
100
AcDbEntity
  8
側面図
370
              15
  6
Continuous
 62
               7
100
AcDbLine
 10
6894.0586209576104
 20
-20368.2974976687
 30
0.0
 11
6894.0586209576104
 21
-23729.474339019402
 31
0.0
  0
LINE
  5
F9
100
AcDbEntity
  8
側面図
370
              15
  6
Continuous
 62
               7
100
AcDbLine
 10
-5772.4901841504197
 20
-23729.474339019402
 30
0.0
 11
7094.42105398884
 21
-23729.474339019402
 31
0.0
  0
LINE
  5
FA
100
AcDbEntity
  8
側面図
370
              15
  6
Continuous
 62
               7
100
AcDbLine
 10
6794.6508436338199
 20
-20368.2974976687
 30
0.0
 11
6794.6508436338199
 21
-23729.474339019402
 31
0.0
  0
LINE
  5
FB
100
AcDbEntity
  8
側面図
370
              15
  6
Continuous
 62
               7
100
AcDbLine
 10
-3570.0178795837301
 20
-2562.127162966859
 30
0.0
 11
-5573.6792608752203
 21
-3421.06148939585
 31
0.0
  0
LINE
  5
FC
100
AcDbEntity
  8
側面図
370
              15
  6
Continuous
 62
               7
100
AcDbLine
 10
-5603.1903658466799
 20
-3324.7613629565203
 30
0.0
 11
-3601.0851256836095
 21
-2467.3785462835604
 31
0.0
  0
LINE
  5
FD
100
AcDbEntity
  8
側面図
370
              15
  6
Continuous
 62
               7
100
AcDbLine
 10
-5373.3121964715901
 20
-4879.53855222109
 30
0.0
 11
-5373.3121964715901
 21
-3932.0732265639499
 31
0.0
  0
LINE
  5
FE
100
AcDbEntity
  8
側面図
370
              15
  6
Continuous
 62
               7
100
AcDbLine
 10
-5393.5049801620498
 20
-4879.53855222109
 30
0.0
 11
-5393.5049801620498
 21
-3932.0732265639499
 31
0.0
  0
LINE
  5
FF
100
AcDbEntity
  8
側面図
370
              15
  6
Continuous
 62
               7
100
AcDbLine
 10
-5373.3121964715901
 20
-4879.53855222109
 30
0.0
 11
-5224.20516185831
 21
-4879.53855222109
 31
0.0
  0
LINE
  5
100
100
AcDbEntity
  8
側面図
370
              15
  6
Continuous
 62
               7
100
AcDbLine
 10
-5485.1459459608604
 20
-3383.7835728994305
 30
0.0
 11
-5573.6792608752203
 21
-3383.7835728994305
 31
0.0
  0
LINE
  5
101
100
AcDbEntity
  8
側面図
370
              15
  6
Continuous
 62
               7
100
AcDbLine
 10
-5797.3421284813603
 20
-3517.3616158351797
 30
0.0
 11
-6592.5950843269602
 21
-3977.1133232129396
 31
0.0
  0
LINE
  5
102
100
AcDbEntity
  8
側面図
370
              15
  6
Continuous
 62
               7
100
AcDbLine
 10
-5794.2391089693001
 20
-3515.8054747067399
 30
0.0
 11
-6592.5950843269602
 21
-3978.6694643413794
 31
0.0
  0
LINE
  5
103
100
AcDbEntity
  8
側面図
370
              15
  6
Continuous
 62
               7
100
AcDbLine
 10
-5772.4901841504197
 20
-3584.1506373030606
 30
0.0
 11
-5772.4901841504197
 21
-3445.9134337268006
 31
0.0
  0
LINE
  5
104
100
AcDbEntity
  8
側面図
370
              15
  6
Continuous
 62
               7
100
AcDbLine
 10
-5772.4901841504197
 20
-3506.48715342574
 30
0.0
 11
-5797.3421284813603
 21
-3517.3616158351797
 31
0.0
  0
LINE
  5
105
100
AcDbEntity
  8
側面図
370
              15
  6
Continuous
 62
               7
100
AcDbLine
 10
-5603.1903658466799
 20
-3584.1506373030606
 30
0.0
 11
-5772.4901841504197
 21
-3584.1506373030606
 31
0.0
  0
LINE
  5
106
100
AcDbEntity
  8
側面図
370
              15
  6
Continuous
 62
               7
100
AcDbLine
 10
-5772.4901841504197
 20
-3445.9134337268006
 30
0.0
 11
-6642.2989729888504
 21
-3949.1583593699306
 31
0.0
  0
LINE
  5
107
100
AcDbEntity
  8
側面図
370
              15
  6
Continuous
 62
               7
100
AcDbLine
 10
-6608.1287073768999
 20
-4107.5837152642198
 30
0.0
 11
-6623.6576990544299
 21
-4078.0726102927802
 31
0.0
  0
LINE
  5
108
100
AcDbEntity
  8
側面図
370
              15
  6
Continuous
 62
               7
100
AcDbLine
 10
-6710.6395042127597
 20
-4127.7764989546704
 30
0.0
 11
-6623.6576990544299
 21
-4078.0726102927802
 31
0.0
  0
LINE
  5
109
100
AcDbEntity
  8
側面図
370
              15
  6
Continuous
 62
               7
100
AcDbLine
 10
-6629.8730008233797
 20
-4120.0096874296996
 30
0.0
 11
-6608.1287073768999
 21
-4107.5837152642198
 31
0.0
  0
LINE
  5
10A
100
AcDbEntity
  8
側面図
370
              15
  6
Continuous
 62
               7
100
AcDbLine
 10
-5958.8797666325599
 20
-3782.9615605782501
 30
0.0
 11
-6567.7431399959996
 21
-4135.5433104796502
 31
0.0
  0
LINE
  5
10B
100
AcDbEntity
  8
側面図
370
              15
  6
Continuous
 62
               7
100
AcDbLine
 10
-5643.5759332275702
 20
-3882.3693379020497
 30
0.0
 11
-5593.87204456567
 21
-3882.3693379020497
 31
0.0
  0
LINE
  5
10C
100
AcDbEntity
  8
側面図
370
              15
  6
Continuous
 62
               7
100
AcDbLine
 10
-5772.4901841504197
 20
-3782.9615605782501
 30
0.0
 11
-5954.22060599203
 21
-3782.9615605782501
 31
0.0
  0
LINE
  5
10D
100
AcDbEntity
  8
側面図
370
              15
  6
Continuous
 62
               7
100
AcDbLine
 10
-5573.6792608752203
 20
-3932.0732265639499
 30
0.0
 11
-5573.6792608752203
 21
-5023.9887418800899
 31
0.0
  0
LINE
  5
10E
100
AcDbEntity
  8
側面図
370
              15
  6
Continuous
 62
               7
100
AcDbLine
 10
-5603.1903658466799
 20
-3584.1506373030606
 30
0.0
 11
-5603.1903658466799
 21
-3324.7613629565203
 31
0.0
  0
LINE
  5
10F
100
AcDbEntity
  8
側面図
370
              15
  6
Continuous
 62
               7
100
AcDbLine
 10
-5573.6792608752203
 20
-3932.0732265639499
 30
0.0
 11
-5573.6792608752203
 21
-3421.06148939585
 31
0.0
  0
LINE
  5
110
100
AcDbEntity
  8
側面図
370
              15
  6
Continuous
 62
               7
100
AcDbLine
 10
-5643.5759332275702
 20
-4680.7253132596998
 30
0.0
 11
-5693.2798218894604
 21
-4680.7253132596998
 31
0.0
  0
LINE
  5
111
100
AcDbEntity
  8
側面図
370
              15
  6
Continuous
 62
               7
100
AcDbLine
 10
-5693.2798218894604
 20
-4581.3198516221
 30
0.0
 11
-5693.2798218894604
 21
-4680.7253132596998
 31
0.0
  0
LINE
  5
112
100
AcDbEntity
  8
側面図
370
              15
  6
Continuous
 62
               7
100
AcDbLine
 10
-5693.2798218894604
 20
-4581.3198516221
 30
0.0
 11
-5742.9790791789801
 21
-4581.3198516221
 31
0.0
  0
LINE
  5
113
100
AcDbEntity
  8
側面図
370
              15
  6
Continuous
 62
               7
100
AcDbLine
 10
-5593.87204456567
 20
-3882.3693379020497
 30
0.0
 11
-5593.87204456567
 21
-4481.9143899845103
 31
0.0
  0
LINE
  5
114
100
AcDbEntity
  8
側面図
370
              15
  6
Continuous
 62
               7
100
AcDbLine
 10
-5643.5759332275702
 20
-4798.7697331455101
 30
0.0
 11
-5643.5759332275702
 21
-4680.7253132596998
 31
0.0
  0
LINE
  5
115
100
AcDbEntity
  8
側面図
370
              15
  6
Continuous
 62
               7
100
AcDbLine
 10
6884.7356683042099
 20
-4879.53855222109
 30
0.0
 11
6884.7356683042099
 21
-3932.0732265639499
 31
0.0
  0
LINE
  5
116
100
AcDbEntity
  8
側面図
370
              15
  6
Continuous
 62
               7
100
AcDbLine
 10
6914.2467732756604
 20
-4879.53855222109
 30
0.0
 11
6914.2467732756604
 21
-3932.0732265639499
 31
0.0
  0
LINE
  5
117
100
AcDbEntity
  8
側面図
370
              15
  6
Continuous
 62
               7
100
AcDbLine
 10
7316.5324118389699
 20
-3525.1284273601595
 30
0.0
 11
8111.7853676845498
 21
-3984.8801347379194
 31
0.0
  0
LINE
  5
118
100
AcDbEntity
  8
側面図
370
              15
  6
Continuous
 62
               7
100
AcDbLine
 10
7313.4293923268997
 20
-3523.5722862317198
 30
0.0
 11
8111.7853676845498
 21
-3986.4362758663501
 31
0.0
  0
LINE
  5
119
100
AcDbEntity
  8
側面図
370
              15
  6
Continuous
 62
               7
100
AcDbLine
 10
7291.6804675080202
 20
-3591.9128174556199
 30
0.0
 11
7291.6804675080202
 21
-3453.6756138793698
 31
0.0
  0
LINE
  5
11A
100
AcDbEntity
  8
側面図
370
              15
  6
Continuous
 62
               7
100
AcDbLine
 10
7291.6804675080202
 20
-3514.2539649507098
 30
0.0
 11
7316.5324118389699
 21
-3525.1284273601595
 31
0.0
  0
LINE
  5
11B
100
AcDbEntity
  8
側面図
370
              15
  6
Continuous
 62
               7
100
AcDbLine
 10
7122.3806492042704
 20
-3591.9128174556199
 30
0.0
 11
7291.6804675080202
 21
-3591.9128174556199
 31
0.0
  0
LINE
  5
11C
100
AcDbEntity
  8
側面図
370
              15
  6
Continuous
 62
               7
100
AcDbLine
 10
7291.6804675080202
 20
-3453.6756138793698
 30
0.0
 11
8161.48925634645
 21
-3956.9205395224899
 31
0.0
  0
LINE
  5
11D
100
AcDbEntity
  8
側面図
370
              15
  6
Continuous
 62
               7
100
AcDbLine
 10
8127.3189907344804
 20
-4115.3505267891996
 30
0.0
 11
8142.8479824120304
 21
-4085.83942181775
 31
0.0
  0
LINE
  5
11E
100
AcDbEntity
  8
側面図
370
              15
  6
Continuous
 62
               7
100
AcDbLine
 10
8229.8297875703593
 20
-4135.5433104796502
 30
0.0
 11
8142.8479824120304
 21
-4085.83942181775
 31
0.0
  0
LINE
  5
11F
100
AcDbEntity
  8
側面図
370
              15
  6
Continuous
 62
               7
100
AcDbLine
 10
8149.0632841809702
 20
-4127.7764989546704
 30
0.0
 11
8127.3189907344804
 21
-4115.3505267891996
 31
0.0
  0
LINE
  5
120
100
AcDbEntity
  8
側面図
370
              15
  6
Continuous
 62
               7
100
AcDbLine
 10
7478.0700499901204
 20
-3790.72837210322
 30
0.0
 11
8086.9334233536001
 21
-4143.3101220046201
 31
0.0
  0
LINE
  5
121
100
AcDbEntity
  8
側面図
370
              15
  6
Continuous
 62
               7
100
AcDbLine
 10
7162.7662165851598
 20
-3890.1361494270204
 30
0.0
 11
7113.0623279232695
 21
-3890.1361494270204
 31
0.0
  0
LINE
  5
122
100
AcDbEntity
  8
側面図
370
              15
  6
Continuous
 62
               7
100
AcDbLine
 10
7291.6804675080202
 20
-3790.72837210322
 30
0.0
 11
7473.4108893496395
 21
-3790.72837210322
 31
0.0
  0
LINE
  5
123
100
AcDbEntity
  8
側面図
370
              15
  6
Continuous
 62
               7
100
AcDbLine
 10
7092.8695442328099
 20
-3939.8354067165101
 30
0.0
 11
7092.8695442328099
 21
-5031.75323771885
 31
0.0
  0
LINE
  5
124
100
AcDbEntity
  8
側面図
370
              15
  6
Continuous
 62
               7
100
AcDbLine
 10
7092.8695442328099
 20
-3939.8354067165101
 30
0.0
 11
7092.8695442328099
 21
-3428.8283009208199
 31
0.0
  0
LINE
  5
125
100
AcDbEntity
  8
側面図
370
              15
  6
Continuous
 62
               7
100
AcDbLine
 10
7212.47010524707
 20
-4589.08434746087
 30
0.0
 11
7212.47010524707
 21
-4688.4921247846596
 31
0.0
  0
LINE
  5
126
100
AcDbEntity
  8
側面図
370
              15
  6
Continuous
 62
               7
100
AcDbLine
 10
7212.47010524707
 20
-4589.08434746087
 30
0.0
 11
7262.1693625365497
 21
-4589.08434746087
 31
0.0
  0
LINE
  5
127
100
AcDbEntity
  8
側面図
370
              15
  6
Continuous
 62
               7
100
AcDbLine
 10
7113.0623279232695
 20
-3890.1361494270204
 30
0.0
 11
7113.0623279232695
 21
-4489.6765701370696
 31
0.0
  0
LINE
  5
128
100
AcDbEntity
  8
側面図
370
              15
  6
Continuous
 62
               7
100
AcDbLine
 10
5968.3352730607603
 20
-2776.4717092920109
 30
0.0
 11
7122.3806492042704
 21
-3362.0392794529398
 31
0.0
  0
LINE
  5
129
100
AcDbEntity
  8
側面図
370
              15
  6
Continuous
 62
               7
100
AcDbLine
 10
7122.3806492042704
 20
-3591.9128174556199
 30
0.0
 11
7122.3806492042704
 21
-3362.0392794529398
 31
0.0
  0
LINE
  5
12A
100
AcDbEntity
  8
側面図
370
              15
  6
Continuous
 62
               7
100
AcDbLine
 10
7144.1249426507502
 20
-11583.2579080467
 30
0.0
 11
7144.1249426507502
 21
-4688.4921247846596
 31
0.0
  0
LINE
  5
12B
100
AcDbEntity
  8
側面図
370
              15
  6
Continuous
 62
               7
100
AcDbLine
 10
7212.47010524707
 20
-4688.4921247846596
 30
0.0
 11
7144.1249426507502
 21
-4688.4921247846596
 31
0.0
  0
LINE
  5
12C
100
AcDbEntity
  8
側面図
370
              15
  6
Continuous
 62
               7
100
AcDbLine
 10
5923.29054503936
 20
-2865.0050242063589
 30
0.0
 11
7077.3359211828702
 21
-3450.5725943673096
 31
0.0
  0
LINE
  5
12D
100
AcDbEntity
  8
側面図
370
              15
  6
Continuous
 62
               7
100
AcDbLine
 10
6914.2467732756604
 20
-3932.0732265639499
 30
0.0
 11
6744.9469549719097
 21
-3932.0732265639499
 31
0.0
  0
LINE
  5
12E
100
AcDbEntity
  8
側面図
370
              15
  6
Continuous
 62
               7
100
AcDbLine
 10
7094.42105398884
 20
-11583.2579080467
 30
0.0
 11
7094.42105398884
 21
-4881.0923776633299
 31
0.0
  0
LINE
  5
12F
100
AcDbEntity
  8
側面図
370
              15
  6
Continuous
 62
               7
100
AcDbLine
 10
7092.8695442328099
 20
-4152.6284432856201
 30
0.0
 11
7092.8695442328099
 21
-4881.0923776633299
 31
0.0
  0
LINE
  5
130
100
AcDbEntity
  8
側面図
370
              15
  6
Continuous
 62
               7
100
AcDbLine
 10
-5124.7973845345005
 20
-5977.6693693061698
 30
0.0
 11
-5124.7973845345005
 21
-4879.53855222109
 31
0.0
  0
LINE
  5
131
100
AcDbEntity
  8
側面図
370
              15
  6
Continuous
 62
               7
100
AcDbLine
 10
-5573.6792608752203
 20
-5427.8258901994104
 30
0.0
 11
-5124.7973845345005
 21
-5427.8258901994104
 31
0.0
  0
LINE
  5
132
100
AcDbEntity
  8
側面図
370
              15
  6
Continuous
 62
               7
100
AcDbLine
 10
5468.1979983021001
 20
-5677.8968432649399
 30
0.0
 11
-5124.7973845345005
 21
-5677.8968432649399
 31
0.0
  0
LINE
  5
133
100
AcDbEntity
  8
側面図
370
              15
  6
Continuous
 62
               7
100
AcDbLine
 10
5468.1979983021001
 20
-5727.5984162406403
 30
0.0
 11
-5124.7973845345005
 21
-5727.5984162406403
 31
0.0
  0
LINE
  5
134
100
AcDbEntity
  8
側面図
370
              15
  6
Continuous
 62
               7
100
AcDbLine
 10
-5025.3896072107
 20
-5977.6693693061698
 30
0.0
 11
-5124.7973845345005
 21
-5977.6693693061698
 31
0.0
  0
LINE
  5
135
100
AcDbEntity
  8
側面図
370
              15
  6
Continuous
 62
               7
100
AcDbLine
 10
-5224.20516185831
 20
-4879.53855222109
 30
0.0
 11
-5124.7973845345005
 21
-4879.53855222109
 31
0.0
  0
LINE
  5
136
100
AcDbEntity
  8
側面図
370
              15
  6
Continuous
 62
               7
100
AcDbLine
 10
-3523.4216418063002
 20
-2703.4720174275899
 30
0.0
 11
-5124.7973845345005
 21
-3391.5503844244104
 31
0.0
  0
LINE
  5
137
100
AcDbEntity
  8
側面図
370
              15
  6
Continuous
 62
               7
100
AcDbLine
 10
-5124.7973845345005
 20
-3932.0732265639499
 30
0.0
 11
-5124.7973845345005
 21
-3391.5503844244104
 31
0.0
  0
LINE
  5
138
100
AcDbEntity
  8
側面図
370
              15
  6
Continuous
 62
               7
100
AcDbLine
 10
-5373.3121964715901
 20
-3932.0732265639499
 30
0.0
 11
-5124.7973845345005
 21
-3932.0732265639499
 31
0.0
  0
LINE
  5
139
100
AcDbEntity
  8
側面図
370
              15
  6
Continuous
 62
               7
100
AcDbLine
 10
-7289.9917726047697
 20
-23974.884973601402
 30
0.0
 11
-7386.2918990441003
 21
-23620.7505561008
 31
0.0
  0
LINE
  5
13A
100
AcDbEntity
  8
側面図
370
              15
  6
Continuous
 62
               7
100
AcDbLine
 10
-5373.3121964715901
 20
-12131.545246025
 30
0.0
 11
-5224.20516185831
 21
-12131.545246025
 31
0.0
  0
LINE
  5
13B
100
AcDbEntity
  8
側面図
370
              15
  6
Continuous
 62
               7
100
AcDbLine
 10
-5393.5049801620498
 20
-15352.933374043399
 30
0.0
 11
-5393.5049801620498
 21
-12131.545246025
 31
0.0
  0
LINE
  5
13C
100
AcDbEntity
  8
側面図
370
              15
  6
Continuous
 62
               7
100
AcDbLine
 10
-5573.6792608752203
 20
-12131.545246025
 30
0.0
 11
-5573.6792608752203
 21
-16050.332378007501
 31
0.0
  0
LINE
  5
13D
100
AcDbEntity
  8
側面図
370
              15
  6
Continuous
 62
               7
100
AcDbLine
 10
-4874.7264314689701
 20
-15352.933374043399
 30
0.0
 11
-4874.7264314689701
 21
-16050.332378007501
 31
0.0
  0
LINE
  5
13E
100
AcDbEntity
  8
側面図
370
              15
  6
Continuous
 62
               7
100
AcDbLine
 10
-5393.5049801620498
 20
-15352.933374043399
 30
0.0
 11
-4874.7264314689701
 21
-15352.933374043399
 31
0.0
  0
LINE
  5
13F
100
AcDbEntity
  8
側面図
370
              15
  6
Continuous
 62
               7
100
AcDbLine
 10
-4975.6857185487997
 20
-15352.933374043399
 30
0.0
 11
-4975.6857185487997
 21
-16050.332378007501
 31
0.0
  0
LINE
  5
140
100
AcDbEntity
  8
側面図
370
              15
  6
Continuous
 62
               7
100
AcDbLine
 10
-4865.4081101879701
 20
-16050.332378007501
 30
0.0
 11
-5573.6792608752203
 21
-16050.332378007501
 31
0.0
  0
LINE
  5
141
100
AcDbEntity
  8
側面図
370
              15
  6
Continuous
 62
               7
100
AcDbLine
 10
-5373.3121964715901
 20
-15343.6150527624
 30
0.0
 11
-5373.3121964715901
 21
-12131.545246025
 31
0.0
  0
LINE
  5
142
100
AcDbEntity
  8
側面図
370
              15
  6
Continuous
 62
               7
100
AcDbLine
 10
-4865.4081101879701
 20
-16050.332378007501
 30
0.0
 11
-4865.4081101879701
 21
-15343.6150527624
 31
0.0
  0
LINE
  5
143
100
AcDbEntity
  8
側面図
370
              15
  6
Continuous
 62
               7
100
AcDbLine
 10
-5373.3121964715901
 20
-15343.6150527624
 30
0.0
 11
-4865.4081101879701
 21
-15343.6150527624
 31
0.0
  0
LINE
  5
144
100
AcDbEntity
  8
側面図
370
              15
  6
Continuous
 62
               7
100
AcDbLine
 10
-4880.9417332378998
 20
-16065.8636853712
 30
0.0
 11
-4865.4081101879701
 21
-16065.8636853712
 31
0.0
  0
LINE
  5
145
100
AcDbEntity
  8
側面図
370
              15
  6
Continuous
 62
               7
100
AcDbLine
 10
-4880.9417332378998
 20
-16065.8636853712
 30
0.0
 11
-4880.9417332378998
 21
-16050.332378007501
 31
0.0
  0
LINE
  5
146
100
AcDbEntity
  8
側面図
370
              15
  6
Continuous
 62
               7
100
AcDbLine
 10
-4865.4081101879701
 20
-16065.8636853712
 30
0.0
 11
-4865.4081101879701
 21
-16525.2158650942
 31
0.0
  0
LINE
  5
147
100
AcDbEntity
  8
側面図
370
              15
  6
Continuous
 62
               7
100
AcDbLine
 10
7094.42105398884
 20
-23728.0423723938
 30
0.0
 11
7094.42105398884
 21
-23731.375798151701
 31
0.0
  0
LINE
  5
148
100
AcDbEntity
  8
側面図
370
              15
  6
Continuous
 62
               7
100
AcDbLine
 10
-5224.20516185831
 20
-12131.545246025
 30
0.0
 11
-5224.20516185831
 21
-15343.6150527624
 31
0.0
  0
LINE
  5
149
100
AcDbEntity
  8
側面図
370
              15
  6
Continuous
 62
               7
100
AcDbLine
 10
-5224.20516185831
 20
-8756.3886070665994
 30
0.0
 11
-5224.20516185831
 21
-11583.2579080467
 31
0.0
  0
LINE
  5
14A
100
AcDbEntity
  8
側面図
370
              15
  6
Continuous
 62
               7
100
AcDbLine
 10
-5124.7973845345005
 20
-4879.53855222109
 30
0.0
 11
-5124.7973845345005
 21
-3932.0732265639499
 31
0.0
  0
ARC
  5
14B
100
AcDbEntity
  8
側面図
370
              15
  6
Continuous
 62
               7
100
AcDbCircle
 10
-7007.3066950557304
 20
-24033.907183544299
 30
0.0
 40
29.511272315961833
100
AcDbArc
 50
90.0
 51
180.0
  0
ARC
  5
14C
100
AcDbEntity
  8
側面図
370
              15
  6
Continuous
 62
               7
100
AcDbCircle
 10
-6808.4911404081404
 20
-24159.718414955099
 30
0.0
 40
20.191924353770446
100
AcDbArc
 50
0.0
 51
90.0
  0
ARC
  5
14D
100
AcDbEntity
  8
側面図
370
              15
  6
Continuous
 62
               7
100
AcDbCircle
 10
-6808.4911404081404
 20
-24268.444513559902
 30
0.0
 40
20.191924353770446
100
AcDbArc
 50
270.0
 51
0.0
  0
ARC
  5
14E
100
AcDbEntity
  8
側面図
370
              15
  6
Continuous
 62
               7
100
AcDbCircle
 10
-6566.1916302399704
 20
-4081.18026117724
 30
0.0
 40
152.21604234514859
100
AcDbArc
 50
117.77999877929705
 51
198.04998779296903
  0
ARC
  5
14F
100
AcDbEntity
  8
側面図
370
              15
  6
Continuous
 62
               7
100
AcDbCircle
 10
-6591.0435745709201
 20
-4098.2653939832198
 30
0.0
 40
45.043520427225623
100
AcDbArc
 50
210.07998657226611
 51
299.96998596191349
  0
ARC
  5
150
100
AcDbEntity
  8
側面図
370
              15
  6
Continuous
 62
               7
100
AcDbCircle
 10
-5772.4901841504197
 20
-3916.5396035140102
 30
0.0
 40
133.57733737511404
100
AcDbArc
 50
14.729995727539176
 51
90.0
  0
ARC
  5
151
100
AcDbEntity
  8
側面図
370
              15
  6
Continuous
 62
               7
100
AcDbCircle
 10
-5593.87204456567
 20
-4643.4473967632703
 30
0.0
 40
161.53539483016539
100
AcDbArc
 50
90.0
 51
157.37998962402315
  0
ARC
  5
152
100
AcDbEntity
  8
側面図
370
              15
  6
Continuous
 62
               7
100
AcDbCircle
 10
8085.38191359757
 20
-4088.9470727022099
 30
0.0
 40
152.21604234514732
100
AcDbArc
 50
341.94999694824179
 51
62.219985961913942
  0
ARC
  5
153
100
AcDbEntity
  8
側面図
370
              15
  6
Continuous
 62
               7
100
AcDbCircle
 10
8110.2338579285097
 20
-4106.0322055081897
 30
0.0
 40
45.043520427225801
100
AcDbArc
 50
240.02999877929679
 51
329.91999816894509
  0
ARC
  5
154
100
AcDbEntity
  8
側面図
370
              15
  6
Continuous
 62
               7
100
AcDbCircle
 10
7291.6804675080202
 20
-3924.30641503898
 30
0.0
 40
133.57733737511444
100
AcDbArc
 50
90.0
 51
165.26998901367173
  0
ARC
  5
155
100
AcDbEntity
  8
側面図
370
              15
  6
Continuous
 62
               7
100
AcDbCircle
 10
7113.0623279232695
 20
-4651.2142082882501
 30
0.0
 40
161.53539483016502
100
AcDbArc
 50
22.619995117187383
 51
90.0
  0
LINE
  5
156
100
AcDbEntity
  8
側面図
370
              15
  6
Continuous
 62
               7
100
AcDbLine
 10
-5722.7909268609301
 20
-24527.832630063302
 30
0.0
 11
-8745.4013661109893
 21
-24527.832630063302
 31
0.0
  0
LINE
  5
157
100
AcDbEntity
  8
側面図
370
              15
  6
Continuous
 62
               7
100
AcDbLine
 10
402.06483879030202
 20
-5734.4936861577198
 30
0.0
 11
402.06483879030202
 21
-7334.43364485451
 31
0.0
  0
CIRCLE
  5
158
100
AcDbEntity
  8
側面図
370
              15
  6
Continuous
 62
               7
100
AcDbCircle
 10
403.59240561407597
 20
-7378.8015416908902
 30
0.0
 40
38.236403442476728
  0
LINE
  5
159
100
AcDbEntity
  8
側面図
370
              15
  6
Continuous
 62
               7
100
AcDbLine
 10
-4725.27517384558
 20
-5727.8355318026697
 30
0.0
 11
-4725.27517384558
 21
-8195.1371982035198
 31
0.0
  0
CIRCLE
  5
15A
100
AcDbEntity
  8
側面図
370
              15
  6
Continuous
 62
               7
100
AcDbCircle
 10
-4725.1146284036104
 20
-8240.4853909387693
 30
0.0
 40
38.23640344247633
  0
LINE
  5
15B
100
AcDbEntity
  8
側面図
370
              60
  6
Continuous
 62
               7
100
AcDbLine
 10
-4725.8395491163201
 20
-8298.7979549461197
 30
0.0
 11
-4725.8395491163201
 21
-16398.797954946102
 31
0.0
  0
LINE
  5
15C
100
AcDbEntity
  8
側面図
370
              15
  6
Continuous
 62
               7
100
AcDbLine
 10
-2499.20295095856
 20
-5729.8887458251902
 30
0.0
 11
-2499.20295095856
 21
-7356.3386375658602
 31
0.0
  0
CIRCLE
  5
15D
100
AcDbEntity
  8
側面図
370
              15
  6
Continuous
 62
               7
100
AcDbCircle
 10
-2501.22225074884
 20
-7392.1968064196599
 30
0.0
 40
38.236403442476785
  0
LINE
  5
15E
100
AcDbEntity
  8
側面図
370
              60
  6
Continuous
 62
               7
100
AcDbLine
 10
-2499.06246243445
 20
-7430.5274869341001
 30
0.0
 11
-2499.06246243445
 21
-10430.527486934099
 31
0.0
  0
LINE
  5
15F
100
AcDbEntity
  8
側面図
370
              15
  6
Continuous
 62
               7
100
AcDbLine
 10
949.77192890517097
 20
-5730.8976233755502
 30
0.0
 11
949.77192890517097
 21
-7357.3475151162202
 31
0.0
  0
CIRCLE
  5
160
100
AcDbEntity
  8
側面図
370
              15
  6
Continuous
 62
               7
100
AcDbCircle
 10
947.75262911489301
 20
-7393.2056839700199
 30
0.0
 40
38.236403442476671
  0
LINE
  5
161
100
AcDbEntity
  8
側面図
370
              60
  6
Continuous
 62
               7
100
AcDbLine
 10
949.91241742928298
 20
-7431.5363644844701
 30
0.0
 11
949.91241742928298
 21
-10431.5363644845
 31
0.0
  0
LINE
  5
162
100
AcDbEntity
  8
側面図
370
              15
  6
Continuous
 62
               7
100
AcDbLine
 10
2349.9966628259199
 20
-5732.8980067882803
 30
0.0
 11
2349.9966628259199
 21
-7359.3478985289403
 31
0.0
  0
CIRCLE
  5
163
100
AcDbEntity
  8
側面図
370
              15
  6
Continuous
 62
               7
100
AcDbCircle
 10
2347.9773630356399
 20
-7395.20606738274
 30
0.0
 40
38.236403442476785
  0
LINE
  5
164
100
AcDbEntity
  8
側面図
370
              60
  6
Continuous
 62
               7
100
AcDbLine
 10
2350.1371513500299
 20
-7433.5367478971903
 30
0.0
 11
2350.1371513500299
 21
-10433.5367478972
 31
0.0
  0
LINE
  5
165
100
AcDbEntity
  8
側面図
370
              15
  6
Continuous
 62
               7
100
AcDbLine
 10
-3973.4137082867301
 20
-5731.6617475364101
 30
0.0
 11
-3973.4137082867301
 21
-6051.1291932199401
 31
0.0
  0
LINE
  5
166
100
AcDbEntity
  8
側面図
370
              60
  6
Continuous
 62
               7
100
AcDbLine
 10
-3972.0290951480001
 20
-6432.4181189556703
 30
0.0
 11
-3972.0290951480001
 21
-15432.4181189557
 31
0.0
  0
LINE
  5
167
100
AcDbEntity
  8
側面図
370
              15
  6
Continuous
 62
               7
100
AcDbLine
 10
-2226.3542018958501
 20
-5730.8868224772996
 30
0.0
 11
-2226.3542018958501
 21
-6255.7043340356304
 31
0.0
  0
CIRCLE
  5
168
100
AcDbEntity
  8
側面図
370
              15
  6
Continuous
 62
               7
100
AcDbCircle
 10
-3974.8098633953696
 20
-6091.49021587059
 30
0.0
 40
38.23640344247633
  0
LINE
  5
169
100
AcDbEntity
  8
側面図
370
              15
  6
Continuous
 62
               7
100
AcDbLine
 10
-3973.74773122037
 20
-6130.78910634562
 30
0.0
 11
-3973.74773122037
 21
-6351.71259874518
 31
0.0
  0
CIRCLE
  5
16A
100
AcDbEntity
  8
側面図
370
              15
  6
Continuous
 62
               7
100
AcDbCircle
 10
-3973.74773122037
 20
-6392.0736213958198
 30
0.0
 40
38.23640344247633
  0
CIRCLE
  5
16B
100
AcDbEntity
  8
側面図
370
              15
  6
Continuous
 62
               7
100
AcDbCircle
 10
-2223.4564235798598
 20
-6292.0207573638299
 30
0.0
 40
38.236403442476785
  0
LINE
  5
16C
100
AcDbEntity
  8
側面図
370
              15
  6
Continuous
 62
               7
100
AcDbLine
 10
-2222.3942914048598
 20
-6331.31964783886
 30
0.0
 11
-2222.3942914048598
 21
-6552.24314023842
 31
0.0
  0
CIRCLE
  5
16D
100
AcDbEntity
  8
側面図
370
              15
  6
Continuous
 62
               7
100
AcDbCircle
 10
-2222.3942914048598
 20
-6592.6041628890598
 30
0.0
 40
38.236403442476785
  0
LINE
  5
16E
100
AcDbEntity
  8
側面図
370
              60
  6
Continuous
 62
               7
100
AcDbLine
 10
-2222.92535749238
 20
-6631.7479820665803
 30
0.0
 11
-2222.92535749238
 21
-14531.747982066599
 31
0.0
  0
LINE
  5
16F
100
AcDbEntity
  8
側面図
370
              15
  6
Continuous
 62
               7
100
AcDbLine
 10
-373.06160836473498
 20
-5734.8246573728402
 30
0.0
 11
-373.06160836473498
 21
-6054.2921030563803
 31
0.0
  0
CIRCLE
  5
170
100
AcDbEntity
  8
側面図
370
              15
  6
Continuous
 62
               7
100
AcDbCircle
 10
-374.45776347337392
 20
-6094.6531257070201
 30
0.0
 40
38.236403442476671
  0
LINE
  5
171
100
AcDbEntity
  8
側面図
370
              15
  6
Continuous
 62
               7
100
AcDbLine
 10
-373.39563129837302
 20
-6133.9520161820501
 30
0.0
 11
-373.39563129837302
 21
-6354.8755085816101
 31
0.0
  0
CIRCLE
  5
172
100
AcDbEntity
  8
側面図
370
              15
  6
Continuous
 62
               7
100
AcDbCircle
 10
-373.39563129837302
 20
-6395.2365312322499
 30
0.0
 40
38.236403442476671
  0
LINE
  5
173
100
AcDbEntity
  8
側面図
370
              60
  6
Continuous
 62
               7
100
AcDbLine
 10
-372.890062173616
 20
-6437.3874272370704
 30
0.0
 11
-372.89006217361703
 21
-15937.387427237099
 31
0.0
  0
LINE
  5
174
100
AcDbEntity
  8
側面図
370
              15
  6
Continuous
 62
               7
100
AcDbLine
 10
1251.5774506356299
 20
-5728.2567101806699
 30
0.0
 11
1251.5774506356299
 21
-6453.3034807578597
 31
0.0
  0
CIRCLE
  5
175
100
AcDbEntity
  8
側面図
370
              15
  6
Continuous
 62
               7
100
AcDbCircle
 10
1251.5578175922101
 20
-6489.4159747084996
 30
0.0
 40
38.236403442476785
  0
LINE
  5
176
100
AcDbEntity
  8
側面図
370
              15
  6
Continuous
 62
               7
100
AcDbLine
 10
1252.6199497672101
 20
-6528.7148651835296
 30
0.0
 11
1252.6199497672101
 21
-6750.8665876637997
 31
0.0
  0
CIRCLE
  5
177
100
AcDbEntity
  8
側面図
370
              15
  6
Continuous
 62
               7
100
AcDbCircle
 10
1251.5578175922101
 20
-6790.16547813944
 30
0.0
 40
38.236403442476785
  0
LINE
  5
178
100
AcDbEntity
  8
側面図
370
              60
  6
Continuous
 62
               7
100
AcDbLine
 10
1254.78152498755
 20
-6830.8360722873404
 30
0.0
 11
1254.78152498755
 21
-14730.8360722873
 31
0.0
  0
LINE
  5
179
100
AcDbEntity
  8
側面図
370
              15
  6
Continuous
 62
               7
100
AcDbLine
 10
2600.9004997945499
 20
-5728.4126455364103
 30
0.0
 11
2600.9004997945499
 21
-6100.2348968135502
 31
0.0
  0
CIRCLE
  5
17A
100
AcDbEntity
  8
側面図
370
              15
  6
Continuous
 62
               7
100
AcDbCircle
 10
2600.7104068137201
 20
-6139.9586401591896
 30
0.0
 40
38.236403442476785
  0
LINE
  5
17B
100
AcDbEntity
  8
側面図
370
              15
  6
Continuous
 62
               7
100
AcDbLine
 10
2601.8787522062198
 20
-6180.8507288967303
 30
0.0
 11
2601.8787522062198
 21
-6399.3313172937997
 31
0.0
  0
CIRCLE
  5
17C
100
AcDbEntity
  8
側面図
370
              15
  6
Continuous
 62
               7
100
AcDbCircle
 10
2601.8787522062198
 20
-6441.3917514244504
 30
0.0
 40
38.236403442476785
  0
LINE
  5
17D
100
AcDbEntity
  8
側面図
370
              60
  6
Continuous
 62
               7
100
AcDbLine
 10
2603.04709759872
 20
-6483.4521855544799
 30
0.0
 11
2603.04709759872
 21
-14383.452185554501
 31
0.0
  0
LINE
  5
17E
100
AcDbEntity
  8
側面図
370
              15
  6
Continuous
 62
               7
100
AcDbLine
 10
5525.5156128033004
 20
-5726.7556909178102
 30
0.0
 11
5525.5156128033004
 21
-6168.0244232837504
 31
0.0
  0
LINE
  5
17F
100
AcDbEntity
  8
側面図
370
              60
  6
Continuous
 62
               7
100
AcDbLine
 10
5527.6422530332402
 20
-6561.0343298662601
 30
0.0
 11
5527.6422530332402
 21
-15734.145023052301
 31
0.0
  0
LINE
  5
180
100
AcDbEntity
  8
側面図
370
              15
  6
Continuous
 62
               7
100
AcDbLine
 10
-4223.3690576367899
 20
-5729.9414204731602
 30
0.0
 11
-4223.3690576367899
 21
-6553.0780852507096
 31
0.0
  0
CIRCLE
  5
181
100
AcDbEntity
  8
側面図
370
              15
  6
Continuous
 62
               7
100
AcDbCircle
 10
-4223.5433795096696
 20
-6592.1798708073302
 30
0.0
 40
38.23640344247633
  0
LINE
  5
182
100
AcDbEntity
  8
側面図
370
              60
  6
Continuous
 62
               7
100
AcDbLine
 10
-4223.5433795096696
 20
-6633.6756432341299
 30
0.0
 11
-4223.5433795096696
 21
-15133.675643234101
 31
0.0
  0
LINE
  5
183
100
AcDbEntity
  8
側面図
370
              15
  6
Continuous
 62
               7
100
AcDbLine
 10
5774.6996835389
 20
-5729.5818749861801
 30
0.0
 11
5774.6996835389
 21
-6653.0157836528497
 31
0.0
  0
CIRCLE
  5
184
100
AcDbEntity
  8
側面図
370
              15
  6
Continuous
 62
               7
100
AcDbCircle
 10
5775.2447243885899
 20
-6690.8533926218997
 30
0.0
 40
38.23640344247633
  0
LINE
  5
185
100
AcDbEntity
  8
側面図
370
              60
  6
Continuous
 62
               7
100
AcDbLine
 10
5775.6951721143996
 20
-6732.2945833968697
 30
0.0
 11
5775.6951721143996
 21
-15932.294583396901
 31
0.0
  0
LINE
  5
186
100
AcDbEntity
  8
側面図
370
              15
  6
Continuous
 62
               7
100
AcDbLine
 10
3236.2812489828598
 20
-5738.6521509361
 30
0.0
 11
3236.2812489828598
 21
-9538.6521509360991
 31
0.0
  0
CIRCLE
  5
187
100
AcDbEntity
  8
側面図
370
              15
  6
Continuous
 62
               7
100
AcDbCircle
 10
3362.5631957026799
 20
-9540.4075777682592
 30
0.0
 40
125.0
  0
LINE
  5
188
100
AcDbEntity
  8
側面図
370
              15
  6
Continuous
 62
               7
100
AcDbLine
 10
3490.9929079344802
 20
-5740.7019477699796
 30
0.0
 11
3490.9929079344802
 21
-9540.7019477699796
 31
0.0
  0
LINE
  5
189
100
AcDbEntity
  8
側面図
370
              15
  6
Continuous
 62
               7
100
AcDbLine
 10
3365.54968663821
 20
-9546.0107929331607
 30
0.0
 11
3365.54968663821
 21
-9746.0107929331607
 31
0.0
  0
LINE
  5
18A
100
AcDbEntity
  8
側面図
370
              15
  6
Continuous
 62
               7
100
AcDbLine
 10
3655.2456138252801
 20
-9748.99489756822
 30
0.0
 11
3655.2456138252801
 21
-15248.9948975682
 31
0.0
  0
LINE
  5
18B
100
AcDbEntity
  8
側面図
370
              15
  6
Continuous
 62
               7
100
AcDbLine
 10
3100.9662510677899
 20
-9751.6637798337106
 30
0.0
 11
3655.2456138252801
 21
-9748.99489756822
 31
0.0
  0
LINE
  5
18C
100
AcDbEntity
  8
側面図
370
              15
  6
Continuous
 62
               7
100
AcDbLine
 10
3100.9662510677899
 20
-15251.6637798337
 30
0.0
 11
3655.2456138252801
 21
-15248.9948975682
 31
0.0
  0
LINE
  5
18D
100
AcDbEntity
  8
側面図
370
              15
  6
Continuous
 62
               7
100
AcDbLine
 10
3100.9662510677899
 20
-15251.6637798337
 30
0.0
 11
3100.9662510677899
 21
-14251.6637798337
 31
0.0
  0
LINE
  5
18E
100
AcDbEntity
  8
側面図
370
              15
  6
Continuous
 62
               7
100
AcDbLine
 10
3100.9662510677899
 20
-14251.6637798337
 30
0.0
 11
3350.9662510677899
 21
-13251.6637798337
 31
0.0
  0
LINE
  5
18F
100
AcDbEntity
  8
側面図
370
              15
  6
Continuous
 62
               7
100
AcDbLine
 10
3350.9662510677899
 20
-13251.6637798337
 30
0.0
 11
3100.9662510677899
 21
-11351.6637798337
 31
0.0
  0
LINE
  5
190
100
AcDbEntity
  8
側面図
370
              15
  6
Continuous
 62
               7
100
AcDbLine
 10
3100.9662510677899
 20
-11351.6637798337
 30
0.0
 11
3100.9662510677899
 21
-9751.6637798337106
 31
0.0
  0
LINE
  5
191
100
AcDbEntity
  8
側面図
370
              15
  6
Continuous
 62
               7
100
AcDbLine
 10
3100.9662510677899
 20
-9751.6637798337106
 30
0.0
 11
3655.2456138252801
 21
-9748.99489756822
 31
0.0
  0
LINE
  5
192
100
AcDbEntity
  8
側面図
370
              15
  6
Continuous
 62
               7
100
AcDbLine
 10
-1323.6020380555899
 20
-5728.5149701262999
 30
0.0
 11
-1323.6020380555899
 21
-6416.3470142483902
 31
0.0
  0
LINE
  5
193
100
AcDbEntity
  8
側面図
370
              15
  6
Continuous
 62
               7
100
AcDbLine
 10
-673.62019182561903
 20
-5726.6333381882196
 30
0.0
 11
-673.62019182561903
 21
-6415.1786688558896
 31
0.0
  0
LINE
  5
194
100
AcDbEntity
  8
側面図
370
              15
  6
Continuous
 62
               7
100
AcDbLine
 10
-3674.3477333852397
 20
-5727.5984162406403
 30
0.0
 11
-3674.3477333852397
 21
-13118.732512217201
 31
0.0
  0
LINE
  5
195
100
AcDbEntity
  8
側面図
370
              60
  6
Continuous
 62
               7
100
AcDbLine
 10
-3801.0283503969395
 20
-11609.079279364099
 30
0.0
 11
-3801.0283503969395
 21
-14188.0721287947
 31
0.0
  0
LINE
  5
196
100
AcDbEntity
  8
側面図
370
              15
  6
Continuous
 62
               7
100
AcDbLine
 10
-3801.0283503969395
 20
-11609.079279364099
 30
0.0
 11
-3679.08329143848
 21
-11451.850354968699
 31
0.0
  0
LINE
  5
197
100
AcDbEntity
  8
側面図
370
              15
  6
Continuous
 62
               7
100
AcDbLine
 10
-3797.64869555941
 20
-11609.699206727901
 30
0.0
 11
-3675.7036366009497
 21
-11766.928131123301
 31
0.0
  0
CIRCLE
  5
198
100
AcDbEntity
  8
側面図
370
              15
  6
Continuous
 62
               7
100
AcDbCircle
 10
-3674.97228974066
 20
-13157.1202094817
 30
0.0
 40
38.23640344247724
  0
LWPOLYLINE
  5
199
100
AcDbEntity
  8
側面図
370
              15
  6
Continuous
 62
               7
100
AcDbPolyline
 90
        4
 70
             129
 10
-3600.5034408054698
 20
-13274.8452238111
 10
-3750.5034408054698
 20
-13274.8452238111
 10
-3750.5034408054698
 20
-13324.8452238111
 10
-3600.5034408054698
 20
-13324.8452238111
  0
LINE
  5
19A
100
AcDbEntity
  8
側面図
370
              15
  6
Continuous
 62
               7
100
AcDbLine
 10
-3750.5034408054698
 20
-13324.8452238111
 30
0.0
 11
-3750.5034408054698
 21
-13595.436608113199
 31
0.0
  0
LINE
  5
19B
100
AcDbEntity
  8
側面図
370
              15
  6
Continuous
 62
               7
100
AcDbLine
 10
-3600.5034408054698
 20
-13324.8452238111
 30
0.0
 11
-3548.2706275621199
 21
-13542.744230912
 31
0.0
  0
LINE
  5
19C
100
AcDbEntity
  8
側面図
370
              15
  6
Continuous
 62
               7
100
AcDbLine
 10
-3750.5034408054698
 20
-13595.436608113199
 30
0.0
 11
-3699.9218595087304
 21
-13615.9994870218
 31
0.0
  0
LINE
  5
19D
100
AcDbEntity
  8
側面図
370
              15
  6
Continuous
 62
               7
100
AcDbLine
 10
-3699.9218595087304
 20
-13615.9994870218
 30
0.0
 11
-3548.2706275621199
 21
-13542.744230912
 31
0.0
  0
LINE
  5
19E
100
AcDbEntity
  8
側面図
370
              15
  6
Continuous
 62
               7
100
AcDbLine
 10
-3711.4884788944901
 20
-13159.7606112503
 30
0.0
 11
-3750.5034408054698
 21
-13274.8452238111
 31
0.0
  0
LINE
  5
19F
100
AcDbEntity
  8
側面図
370
              15
  6
Continuous
 62
               7
100
AcDbLine
 10
-3636.9480428529396
 20
-13163.6161510455
 30
0.0
 11
-3600.5034408054698
 21
-13274.8452238111
 31
0.0
  0
CIRCLE
  5
1A0
100
AcDbEntity
  8
側面図
370
              15
  6
Continuous
 62
               7
100
AcDbCircle
 10
-1601.8343214914103
 20
-12961.838356411699
 30
0.0
 40
38.236403442476785
  0
LWPOLYLINE
  5
1A1
100
AcDbEntity
  8
側面図
370
              15
  6
Continuous
 62
               7
100
AcDbPolyline
 90
        4
 70
             129
 10
-1527.3654725562201
 20
-13079.5633707411
 10
-1677.3654725562201
 20
-13079.5633707411
 10
-1677.3654725562201
 20
-13129.5633707411
 10
-1527.3654725562201
 20
-13129.5633707411
  0
LINE
  5
1A2
100
AcDbEntity
  8
側面図
370
              15
  6
Continuous
 62
               7
100
AcDbLine
 10
-1677.3654725562201
 20
-13129.5633707411
 30
0.0
 11
-1677.3654725562201
 21
-13400.154755043201
 31
0.0
  0
LINE
  5
1A3
100
AcDbEntity
  8
側面図
370
              15
  6
Continuous
 62
               7
100
AcDbLine
 10
-1527.3654725562201
 20
-13129.5633707411
 30
0.0
 11
-1475.1326593128799
 21
-13347.462377841999
 31
0.0
  0
LINE
  5
1A4
100
AcDbEntity
  8
側面図
370
              15
  6
Continuous
 62
               7
100
AcDbLine
 10
-1677.3654725562201
 20
-13400.154755043201
 30
0.0
 11
-1626.7838912594898
 21
-13420.717633951799
 31
0.0
  0
LINE
  5
1A5
100
AcDbEntity
  8
側面図
370
              15
  6
Continuous
 62
               7
100
AcDbLine
 10
-1626.7838912594898
 20
-13420.717633951799
 30
0.0
 11
-1475.1326593128799
 21
-13347.462377841999
 31
0.0
  0
LINE
  5
1A6
100
AcDbEntity
  8
側面図
370
              15
  6
Continuous
 62
               7
100
AcDbLine
 10
-1638.3505106452503
 20
-12964.478758180199
 30
0.0
 11
-1677.3654725562201
 21
-13079.5633707411
 31
0.0
  0
LINE
  5
1A7
100
AcDbEntity
  8
側面図
370
              15
  6
Continuous
 62
               7
100
AcDbLine
 10
-1563.8100746036898
 20
-12968.3342979755
 30
0.0
 11
-1527.3654725562201
 21
-13079.5633707411
 31
0.0
  0
LWPOLYLINE
  5
1A8
100
AcDbEntity
  8
側面図
370
              15
  6
Continuous
 62
               7
100
AcDbPolyline
 90
        4
 70
             129
 10
-1579.6928896899399
 20
-7728.5205496093304
 10
-1879.6928896899399
 20
-7728.5205496093304
 10
-1879.6928896899399
 20
-7778.5205496093304
 10
-1579.6928896899399
 20
-7778.5205496093304
  0
LWPOLYLINE
  5
1A9
100
AcDbEntity
  8
側面図
370
              15
  6
Continuous
 62
               7
100
AcDbPolyline
 90
        4
 70
             129
 10
-1723.9935198891199
 20
-12500.7238558056
 10
-1591.4283427455302
 20
-12500.7238558056
 10
-1591.4283427455302
 20
-12524.4869580387
 10
-1723.9935198891199
 20
-12524.4869580387
  0
LWPOLYLINE
  5
1AA
100
AcDbEntity
  8
側面図
370
              15
  6
Continuous
 62
               7
100
AcDbPolyline
 90
        4
 70
             129
 10
-1591.4283427455302
 20
-12924.0463109742
 10
-1612.7925714662997
 20
-12924.0463109742
 10
-1612.7925714662997
 20
-12524.4869580387
 10
-1591.4283427455302
 20
-12524.4869580387
  0
LWPOLYLINE
  5
1AB
100
AcDbEntity
  8
側面図
370
              15
  6
Continuous
 62
               7
100
AcDbPolyline
 90
        4
 70
             129
 10
-1834.4660269831802
 20
-7849.6110388973602
 10
-1864.4660269831802
 20
-7849.6110388973602
 10
-1864.4660269831802
 20
-13749.611038897399
 10
-1834.4660269831802
 20
-13749.611038897399
  0
SOLID
  5
1AC
100
AcDbEntity
  8
側面図
370
              15
  6
Continuous
 62
               7
100
AcDbTrace
 10
-1834.4660269831802
 20
-7849.6110388973602
 30
0.0
 11
-1864.4660269831802
 21
-7849.6110388973602
 31
0.0
 12
-1834.4660269831802
 22
-13749.611038897399
 32
0.0
 13
-1864.4660269831802
 23
-13749.611038897399
 33
0.0
  0
LINE
  5
1AD
100
AcDbEntity
  8
側面図
370
              15
  6
Continuous
 62
               7
100
AcDbLine
 10
-1723.9935198891199
 20
-12500.7238558056
 30
0.0
 11
-1723.9935198891199
 21
-8500.7238558055706
 31
0.0
  0
LWPOLYLINE
  5
1AE
100
AcDbEntity
  8
側面図
370
              15
  6
Continuous
 62
               7
100
AcDbPolyline
 90
        4
 70
             129
 10
-1745.18152673026
 20
-8495.8616473098591
 10
-1708.35791008771
 20
-8495.8616473098591
 10
-1708.35791008771
 20
-7836.38414925699
 10
-1745.18152673026
 20
-7836.38414925699
  0
LWPOLYLINE
  5
1AF
100
AcDbEntity
  8
側面図
370
              15
  6
Continuous
 62
               7
100
AcDbPolyline
 90
        4
 70
             129
 10
-1613.30198378453
 20
-12498.7322281574
 10
-1592.2456987185101
 20
-12498.7322281574
 10
-1592.2456987185101
 20
-7839.4520143014997
 10
-1613.30198378453
 20
-7839.4520143014997
  0
LINE
  5
1B0
100
AcDbEntity
  8
側面図
370
              15
  6
Continuous
 62
               7
100
AcDbLine
 10
-1723.9220565784199
 20
-5731.0113746738798
 30
0.0
 11
-1723.9220565784199
 21
-7731.0113746738798
 31
0.0
  0
LINE
  5
1B1
100
AcDbEntity
  8
側面図
370
              15
  6
Continuous
 62
               7
100
AcDbLine
 10
-3173.4539373278999
 20
-5727.5984162406403
 30
0.0
 11
-3173.4539373278999
 21
-12425.307124979699
 31
0.0
  0
LWPOLYLINE
  5
1B2
100
AcDbEntity
  8
側面図
370
              15
  6
Continuous
 62
               7
100
AcDbPolyline
 90
        4
 70
             129
 10
-3075.2107135014899
 20
-13412.800047635399
 10
-3275.2107135014899
 20
-13412.800047635399
 10
-3275.2107135014899
 20
-13462.800047635399
 10
-3075.2107135014899
 20
-13462.800047635399
  0
LWPOLYLINE
  5
1B3
100
AcDbEntity
  8
側面図
370
              15
  6
Continuous
 62
               7
100
AcDbPolyline
 90
        4
 70
             129
 10
-3048.3210797192201
 20
-13461.9305259745
 10
-3298.3210797192201
 20
-13461.9305259745
 10
-3298.3210797192201
 20
-13511.9305259745
 10
-3048.3210797192201
 20
-13511.9305259745
  0
CIRCLE
  5
1B4
100
AcDbEntity
  8
側面図
370
              15
  6
Continuous
 62
               7
100
AcDbCircle
 10
-3173.88395961681
 20
-13267.558774213599
 30
0.0
 40
29.280934888181491
  0
CIRCLE
  5
1B5
100
AcDbEntity
  8
側面図
370
              15
  6
Continuous
 62
               7
100
AcDbCircle
 10
-3174.6442909009202
 20
-13042.266192442399
 30
0.0
 40
29.280934888181491
  0
LINE
  5
1B6
100
AcDbEntity
  8
側面図
370
              15
  6
Continuous
 62
               7
100
AcDbLine
 10
-3204.04552350009
 20
-13264.0033422499
 30
0.0
 11
-3204.04552350009
 21
-13038.9404016802
 31
0.0
  0
LINE
  5
1B7
100
AcDbEntity
  8
側面図
370
              15
  6
Continuous
 62
               7
100
AcDbLine
 10
-3144.3131790833099
 20
-13268.2699382797
 30
0.0
 11
-3144.3131790833099
 21
-13040.0070506876
 31
0.0
  0
LINE
  5
1B8
100
AcDbEntity
  8
側面図
370
              15
  6
Continuous
 62
               7
100
AcDbLine
 10
-3297.9106361550298
 20
-13411.200905277001
 30
0.0
 11
-3047.9106361550298
 21
-13411.200905277001
 31
0.0
  0
LINE
  5
1B9
100
AcDbEntity
  8
側面図
370
              15
  6
Continuous
 62
               7
100
AcDbLine
 10
-3298.9772851624698
 20
-13412.267554284401
 30
0.0
 11
-3298.9772851624698
 21
-13112.267554284401
 31
0.0
  0
LINE
  5
1BA
100
AcDbEntity
  8
側面図
370
              15
  6
Continuous
 62
               7
100
AcDbLine
 10
-3047.2481194060401
 20
-13412.267554284401
 30
0.0
 11
-3047.2481194060401
 21
-13112.267554284401
 31
0.0
  0
LINE
  5
1BB
100
AcDbEntity
  8
側面図
370
              15
  6
Continuous
 62
               7
100
AcDbLine
 10
-3297.9106361550298
 20
-13113.605832200499
 30
0.0
 11
-3208.3121195304702
 21
-13113.605832200499
 31
0.0
  0
LINE
  5
1BC
100
AcDbEntity
  8
側面図
370
              15
  6
Continuous
 62
               7
100
AcDbLine
 10
-3049.3814174209301
 20
-13113.605832200499
 30
0.0
 11
-3142.1798810690402
 21
-13113.605832200499
 31
0.0
  0
LINE
  5
1BD
100
AcDbEntity
  8
側面図
370
              15
  6
Continuous
 62
               7
100
AcDbLine
 10
-3175.7303789081502
 20
-13010.7501405069
 30
0.0
 11
-3175.7303789081502
 21
-12928.3898743481
 31
0.0
  0
LWPOLYLINE
  5
1BE
100
AcDbEntity
  8
側面図
370
              15
  6
Continuous
 62
               7
100
AcDbPolyline
 90
        4
 70
             129
 10
-3124.0260170214601
 20
-12637.572677078901
 10
-3224.0260170214601
 20
-12637.572677078901
 10
-3224.0260170214601
 20
-12737.572677078901
 10
-3124.0260170214601
 20
-12737.572677078901
  0
CIRCLE
  5
1BF
100
AcDbEntity
  8
側面図
370
              15
  6
Continuous
 62
               7
100
AcDbCircle
 10
-3177.28927311917
 20
-12889.714282278301
 30
0.0
 40
38.236403442476785
  0
CIRCLE
  5
1C0
100
AcDbEntity
  8
側面図
370
              15
  6
Continuous
 62
               7
100
AcDbCircle
 10
-3174.8818988075
 20
-12465.398073718799
 30
0.0
 40
38.236403442476785
  0
LINE
  5
1C1
100
AcDbEntity
  8
側面図
370
              15
  6
Continuous
 62
               7
100
AcDbLine
 10
-3175.3004007642298
 20
-12850.6503405454
 30
0.0
 11
-3175.3004007642298
 21
-12738.6139535944
 31
0.0
  0
LINE
  5
1C2
100
AcDbEntity
  8
側面図
370
              15
  6
Continuous
 62
               7
100
AcDbLine
 10
-3175.5521299299899
 20
-12504.4105925125
 30
0.0
 11
-3175.5521299299899
 21
-12628.5297497422
 31
0.0
  0
LINE
  5
1C3
100
AcDbEntity
  8
側面図
370
              15
  6
Continuous
 62
               7
100
AcDbLine
 10
50.60318334924159
 20
-5727.5984162406403
 30
0.0
 11
50.603183349239771
 21
-12324.606088198299
 31
0.0
  0
LWPOLYLINE
  5
1C4
100
AcDbEntity
  8
側面図
370
              15
  6
Continuous
 62
               7
100
AcDbPolyline
 90
        4
 70
             129
 10
150.68905055657297
 20
-13310.1910372928
 10
-49.310949443427262
 20
-13310.1910372928
 10
-49.310949443427262
 20
-13360.1910372928
 10
150.68905055657297
 20
-13360.1910372928
  0
LWPOLYLINE
  5
1C5
100
AcDbEntity
  8
側面図
370
              15
  6
Continuous
 62
               7
100
AcDbPolyline
 90
        4
 70
             129
 10
177.57868433884698
 20
-13359.3215156319
 10
-72.421315661153471
 20
-13359.3215156319
 10
-72.421315661153471
 20
-13409.3215156319
 10
177.57868433884698
 20
-13409.3215156319
  0
CIRCLE
  5
1C6
100
AcDbEntity
  8
側面図
370
              15
  6
Continuous
 62
               7
100
AcDbCircle
 10
52.015804441253124
 20
-13164.949763871
 30
0.0
 40
29.280934888181378
  0
CIRCLE
  5
1C7
100
AcDbEntity
  8
側面図
370
              15
  6
Continuous
 62
               7
100
AcDbCircle
 10
51.255473157144706
 20
-12939.6571820999
 30
0.0
 40
29.280934888181378
  0
LINE
  5
1C8
100
AcDbEntity
  8
側面図
370
              15
  6
Continuous
 62
               7
100
AcDbLine
 10
21.854240557973071
 20
-13161.394331907401
 30
0.0
 11
21.854240557973071
 21
-12936.331391337601
 31
0.0
  0
LINE
  5
1C9
100
AcDbEntity
  8
側面図
370
              15
  6
Continuous
 62
               7
100
AcDbLine
 10
81.586584974751588
 20
-13165.6609279371
 30
0.0
 11
81.586584974751588
 21
-12937.398040345101
 31
0.0
  0
LINE
  5
1CA
100
AcDbEntity
  8
側面図
370
              15
  6
Continuous
 62
               7
100
AcDbLine
 10
-72.010872096965727
 20
-13308.5918949344
 30
0.0
 11
177.98912790303399
 21
-13308.5918949344
 31
0.0
  0
LINE
  5
1CB
100
AcDbEntity
  8
側面図
370
              15
  6
Continuous
 62
               7
100
AcDbLine
 10
-73.077521104406969
 20
-13309.6585439419
 30
0.0
 11
-73.077521104406969
 21
-13009.6585439419
 31
0.0
  0
LINE
  5
1CC
100
AcDbEntity
  8
側面図
370
              15
  6
Continuous
 62
               7
100
AcDbLine
 10
178.65164465201701
 20
-13309.6585439419
 30
0.0
 11
178.65164465201701
 21
-13009.6585439419
 31
0.0
  0
LINE
  5
1CD
100
AcDbEntity
  8
側面図
370
              15
  6
Continuous
 62
               7
100
AcDbLine
 10
-72.010872096965727
 20
-13010.996821858
 30
0.0
 11
17.58764452759101
 21
-13010.996821858
 31
0.0
  0
LINE
  5
1CE
100
AcDbEntity
  8
側面図
370
              15
  6
Continuous
 62
               7
100
AcDbLine
 10
176.51834663713299
 20
-13010.996821858
 30
0.0
 11
83.719882989024711
 21
-13010.996821858
 31
0.0
  0
LINE
  5
1CF
100
AcDbEntity
  8
側面図
370
              15
  6
Continuous
 62
               7
100
AcDbLine
 10
50.169385149916081
 20
-12908.1411301643
 30
0.0
 11
50.169385149916081
 21
-12825.780864005599
 31
0.0
  0
LWPOLYLINE
  5
1D0
100
AcDbEntity
  8
側面図
370
              15
  6
Continuous
 62
               7
100
AcDbPolyline
 90
        4
 70
             129
 10
101.87374703660703
 20
-12534.963666736399
 10
1.873747036606801
 20
-12534.963666736399
 10
1.873747036606801
 20
-12634.963666736399
 10
101.87374703660703
 20
-12634.963666736399
  0
CIRCLE
  5
1D1
100
AcDbEntity
  8
側面図
370
              15
  6
Continuous
 62
               7
100
AcDbCircle
 10
48.610490938887722
 20
-12787.105271935799
 30
0.0
 40
38.236403442476671
  0
CIRCLE
  5
1D2
100
AcDbEntity
  8
側面図
370
              15
  6
Continuous
 62
               7
100
AcDbCircle
 10
51.017865250562124
 20
-12362.7890633762
 30
0.0
 40
38.236403442476671
  0
LINE
  5
1D3
100
AcDbEntity
  8
側面図
370
              15
  6
Continuous
 62
               7
100
AcDbLine
 10
50.599363293829128
 20
-12748.041330202799
 30
0.0
 11
50.599363293829128
 21
-12636.004943251801
 31
0.0
  0
LINE
  5
1D4
100
AcDbEntity
  8
側面図
370
              15
  6
Continuous
 62
               7
100
AcDbLine
 10
50.347634128070808
 20
-12401.801582169899
 30
0.0
 11
50.347634128070808
 21
-12525.9207393996
 31
0.0
  0
LINE
  5
1D5
100
AcDbEntity
  8
側面図
370
              15
  6
Continuous
 62
               7
100
AcDbLine
 10
2000.4701117095401
 20
-5735.0866184430097
 30
0.0
 11
2000.4701117095401
 21
-12332.094290400701
 31
0.0
  0
LWPOLYLINE
  5
1D6
100
AcDbEntity
  8
側面図
370
              15
  6
Continuous
 62
               7
100
AcDbPolyline
 90
        4
 70
             129
 10
2050.02282650392
 20
-12540.121104641499
 10
1950.02282650392
 20
-12540.121104641499
 10
1950.02282650392
 20
-12640.121104641499
 10
2050.02282650392
 20
-12640.121104641499
  0
CIRCLE
  5
1D7
100
AcDbEntity
  8
側面図
370
              15
  6
Continuous
 62
               7
100
AcDbCircle
 10
1996.7595704062001
 20
-12792.262709840899
 30
0.0
 40
38.236403442476785
  0
CIRCLE
  5
1D8
100
AcDbEntity
  8
側面図
370
              15
  6
Continuous
 62
               7
100
AcDbCircle
 10
1999.1669447178799
 20
-12367.9465012813
 30
0.0
 40
38.236403442476785
  0
LINE
  5
1D9
100
AcDbEntity
  8
側面図
370
              15
  6
Continuous
 62
               7
100
AcDbLine
 10
1998.74844276115
 20
-12753.198768107901
 30
0.0
 11
1998.74844276115
 21
-12641.162381156901
 31
0.0
  0
LINE
  5
1DA
100
AcDbEntity
  8
側面図
370
              15
  6
Continuous
 62
               7
100
AcDbLine
 10
1998.49671359539
 20
-12406.959020075001
 30
0.0
 11
1998.49671359539
 21
-12531.0781773047
 31
0.0
  0
LINE
  5
1DB
100
AcDbEntity
  8
側面図
370
              15
  6
Continuous
 62
               7
100
AcDbLine
 10
3948.8354853384899
 20
-9785.52132150326
 30
0.0
 11
3948.8354853384899
 21
-9784.6455807424609
 31
0.0
  0
LINE
  5
1DC
100
AcDbEntity
  8
側面図
370
              15
  6
Continuous
 62
               7
100
AcDbLine
 10
3926.4267620140099
 20
-5728.9495846244199
 30
0.0
 11
3926.4267620140099
 21
-12732.2833929643
 31
0.0
  0
LINE
  5
1DD
100
AcDbEntity
  8
側面図
370
              15
  6
Continuous
 62
               7
100
AcDbLine
 10
3871.2810083292302
 20
-13006.6566203689
 30
0.0
 11
3926.4267620140099
 21
-13028.949584624401
 31
0.0
  0
LINE
  5
1DE
100
AcDbEntity
  8
側面図
370
              15
  6
Continuous
 62
               7
100
AcDbLine
 10
4041.41152501631
 20
-12733.2744797614
 30
0.0
 11
4070.7443727209702
 21
-12764.953955282401
 31
0.0
  0
LINE
  5
1DF
100
AcDbEntity
  8
側面図
370
              15
  6
Continuous
 62
               7
100
AcDbLine
 10
4070.7443727209702
 20
-12764.953955282401
 30
0.0
 11
3926.4267620140099
 21
-13028.949584624401
 31
0.0
  0
LINE
  5
1E0
100
AcDbEntity
  8
側面図
370
              15
  6
Continuous
 62
               7
100
AcDbLine
 10
3870.1076944210499
 20
-12732.101165853201
 30
0.0
 11
3870.1076944210499
 21
-13006.6566203695
 31
0.0
  0
LINE
  5
1E1
100
AcDbEntity
  8
側面図
370
              15
  6
Continuous
 62
               7
100
AcDbLine
 10
3870.1076944210499
 20
-12732.101165853201
 30
0.0
 11
4040.2382111075099
 21
-12732.101165853201
 31
0.0
  0
LWPOLYLINE
  5
1E2
100
AcDbEntity
  8
側面図
370
              15
  6
Continuous
 62
               7
100
AcDbPolyline
 90
        4
 70
             129
 10
3977.43866082667
 20
-12403.312399902699
 10
3877.43866082667
 20
-12403.312399902699
 10
3877.43866082667
 20
-12503.312399902699
 10
3977.43866082667
 20
-12503.312399902699
  0
CIRCLE
  5
1E3
100
AcDbEntity
  8
側面図
370
              15
  6
Continuous
 62
               7
100
AcDbCircle
 10
3924.1754047289501
 20
-12655.454005102099
 30
0.0
 40
38.236403442476785
  0
CIRCLE
  5
1E4
100
AcDbEntity
  8
側面図
370
              15
  6
Continuous
 62
               7
100
AcDbCircle
 10
3926.5827790406302
 20
-12231.1377965425
 30
0.0
 40
38.236403442476785
  0
LINE
  5
1E5
100
AcDbEntity
  8
側面図
370
              15
  6
Continuous
 62
               7
100
AcDbLine
 10
3926.1642770838898
 20
-12616.390063369099
 30
0.0
 11
3926.1642770838898
 21
-12504.353676418101
 31
0.0
  0
LINE
  5
1E6
100
AcDbEntity
  8
側面図
370
              15
  6
Continuous
 62
               7
100
AcDbLine
 10
3925.9125479181398
 20
-12270.150315336199
 30
0.0
 11
3925.9125479181398
 21
-12394.2694725659
 31
0.0
  0
CIRCLE
  5
1E7
100
AcDbEntity
  8
側面図
370
              15
  6
Continuous
 62
               7
100
AcDbCircle
 10
5526.4417787535003
 20
-6207.8334603335197
 30
0.0
 40
38.23640344247633
  0
LINE
  5
1E8
100
AcDbEntity
  8
側面図
370
              15
  6
Continuous
 62
               7
100
AcDbLine
 10
5527.6101241460001
 20
-6248.7255490710604
 30
0.0
 11
5527.6101241460001
 21
-6467.2061374681298
 31
0.0
  0
CIRCLE
  5
1E9
100
AcDbEntity
  8
側面図
370
              15
  6
Continuous
 62
               7
100
AcDbCircle
 10
5527.6101241460001
 20
-6509.2665715987796
 30
0.0
 40
38.23640344247633
  0
LINE
  5
1EA
100
AcDbEntity
  8
側面図
370
              15
  6
Continuous
 62
               7
100
AcDbLine
 10
-1725.6689237403298
 20
-12525.4318701254
 30
0.0
 11
-1725.6689237403298
 21
-13673.489862414801
 31
0.0
  0
MTEXT
  5
1EB
100
AcDbEntity
  8
側面図
 62
               7
100
AcDbMText
 10
-6314.5184343181963
 20
1381.5521395665328
 30
0.0
 40
380.06293402777783
 41
0.0
 71
               1
 72
               1
  1
高知市春野文化ホールピアステージ　大ホール舞台側面図
  7
ＭＳ ゴシック
 73
               1
 44
0.7828267384257844
  0
MTEXT
  5
1EC
100
AcDbEntity
  8
側面図
 62
               7
100
AcDbMText
 10
6891.0340702178401
 20
1357.8550275520938
 30
0.0
 40
380.06293402777783
 41
0.0
 71
               1
 72
               1
  1
（S=1/100)
  7
ＭＳ ゴシック
 73
               1
 44
0.7828267384257844
  0
LWPOLYLINE
  5
1ED
100
AcDbEntity
  8
側面図
370
              15
  6
Continuous
 62
               7
100
AcDbPolyline
 90
        6
 70
             128
 10
-8709.0763780389025
 20
-14885.2694085454
 10
-7746.5015457912805
 20
-15363.6041411347
 10
-7188.6756624478703
 20
-15620.7772464685
 10
-6481.1820537311096
 20
-15923.7199884988
 10
-5832.7187203733201
 20
-16179.3543477692
 10
-4865.4081101879701
 20
-16525.2158650942
  0
MTEXT
  5
1EE
100
AcDbEntity
  8
側面図
 62
               7
100
AcDbMText
 10
-7879.3494839637415
 20
-17267.222317410567
 30
0.0
 40
217.17881944444446
 41
0.0
 71
               1
 72
               1
  1
プロセニアム　 7200mm
  7
ＭＳ ゴシック
 73
               1
 44
0.7828267384257843
  0
MTEXT
  5
1EF
100
AcDbEntity
  8
側面図
 62
               7
100
AcDbMText
 10
-9262.4677366527212
 20
-16846.832366481667
 30
0.0
 40
217.17881944444446
 41
0.0
 71
               1
 72
               1
  1
舞台面から
  7
ＭＳ ゴシック
 73
               1
 44
0.7828267384257843
  0
MTEXT
  5
1F0
100
AcDbEntity
  8
側面図
 62
               7
100
AcDbMText
 10
-7519.7769168984987
 20
-16837.575201044667
 30
0.0
 40
217.17881944444446
 41
0.0
 71
               1
 72
               1
  1
す の こ　
  7
ＭＳ ゴシック
 73
               1
 44
0.7828267384257843
  0
MTEXT
  5
1F1
100
AcDbEntity
  8
側面図
 62
               7
100
AcDbMText
 10
-5899.1117629246128
 20
-16866.333724485266
 30
0.0
 40
217.17881944444446
 41
0.0
 71
               1
 72
               1
  1
18000mm
  7
ＭＳ ゴシック
 73
               1
 44
0.7828267384257843
  0
LINE
  5
1F2
100
AcDbEntity
  8
側面図
370
              15
  6
Continuous
 62
               7
100
AcDbLine
 10
-4475.2770412291602
 20
-5730.2780903757903
 30
0.0
 11
-4475.2770412291602
 21
-7249.7452974766602
 31
0.0
  0
CIRCLE
  5
1F3
100
AcDbEntity
  8
側面図
370
              15
  6
Continuous
 62
               7
100
AcDbCircle
 10
-4475.0892766229899
 20
-7287.1173523611897
 30
0.0
 40
38.23640344247633
  0
LINE
  5
1F4
100
AcDbEntity
  8
側面図
370
              15
  6
Continuous
 62
               7
100
AcDbLine
 10
-2773.9459613908198
 20
-5736.4880113121999
 30
0.0
 11
-2773.9459613908198
 21
-7255.9552184130698
 31
0.0
  0
CIRCLE
  5
1F5
100
AcDbEntity
  8
側面図
370
              15
  6
Continuous
 62
               7
100
AcDbCircle
 10
-2773.75819678465
 20
-7293.3272732976002
 30
0.0
 40
38.236403442476785
  0
LINE
  5
1F6
100
AcDbEntity
  8
側面図
370
              15
  6
Continuous
 62
               7
100
AcDbLine
 10
676.97106197934897
 20
-5731.6363750070695
 30
0.0
 11
676.97106197934897
 21
-7251.1035821079304
 31
0.0
  0
CIRCLE
  5
1F7
100
AcDbEntity
  8
側面図
370
              15
  6
Continuous
 62
               7
100
AcDbCircle
 10
677.15882658551902
 20
-7288.4756369924598
 30
0.0
 40
38.236403442476671
  0
LINE
  5
1F8
100
AcDbEntity
  8
側面図
370
              15
  6
Continuous
 62
               7
100
AcDbLine
 10
1650.67233790147
 20
-5731.1610372750001
 30
0.0
 11
1650.67233790147
 21
-7250.6282443758701
 31
0.0
  0
CIRCLE
  5
1F9
100
AcDbEntity
  8
側面図
370
              15
  6
Continuous
 62
               7
100
AcDbCircle
 10
1650.86010250764
 20
-7288.0002992603904
 30
0.0
 40
38.236403442476785
  0
LINE
  5
1FA
100
AcDbEntity
  8
側面図
370
              15
  6
Continuous
 62
               7
100
AcDbLine
 10
2834.8595555667898
 20
-5730.9210844216605
 30
0.0
 11
2834.8595555667898
 21
-7250.3882915225204
 31
0.0
  0
CIRCLE
  5
1FB
100
AcDbEntity
  8
側面図
370
              15
  6
Continuous
 62
               7
100
AcDbCircle
 10
2835.0473201729601
 20
-7287.7603464070498
 30
0.0
 40
38.236403442476785
  0
LINE
  5
1FC
100
AcDbEntity
  8
側面図
370
              15
  6
Continuous
 62
               7
100
AcDbLine
 10
5277.9033230630002
 20
-5731.5577679212902
 30
0.0
 11
5277.9033230630002
 21
-7251.0249750221501
 31
0.0
  0
CIRCLE
  5
1FD
100
AcDbEntity
  8
側面図
370
              15
  6
Continuous
 62
               7
100
AcDbCircle
 10
5278.0910876691696
 20
-7288.3970299066796
 30
0.0
 40
38.23640344247633
  0
LWPOLYLINE
  5
1FE
100
AcDbEntity
  8
側面図
370
              15
  6
Continuous
 62
               7
100
AcDbPolyline
 90
        4
 70
             129
 10
-608.99247588457297
 20
-6417.1267582307901
 10
-708.99247588457297
 20
-6417.1267582307901
 10
-708.99247588457501
 20
-11667.126758230799
 10
-608.99247588457501
 20
-11667.126758230799
  0
LWPOLYLINE
  5
1FF
100
AcDbEntity
  8
側面図
370
              15
  6
Continuous
 62
               7
100
AcDbPolyline
 90
        4
 70
             129
 10
-708.56043912538598
 20
-6418.39666204475
 10
-1358.5604391253901
 20
-6418.39666204475
 10
-1358.5604391253901
 20
-6518.39666204475
 10
-708.56043912538598
 20
-6518.39666204475
  0
LWPOLYLINE
  5
200
100
AcDbEntity
  8
側面図
370
              15
  6
Continuous
 62
               7
100
AcDbPolyline
 90
        4
 70
             129
 10
-710.36809573955907
 20
-7230.7630183432402
 10
-1360.36809573956
 20
-7230.7630183432402
 10
-1360.36809573956
 20
-7330.7630183432402
 10
-710.36809573955907
 20
-7330.7630183432402
  0
LINE
  5
201
100
AcDbEntity
  8
側面図
370
              15
  6
Continuous
 62
               7
100
AcDbLine
 10
-701.07459081608113
 20
-7590.0727009553802
 30
0.0
 11
-770.89893594136902
 21
-14991.480803948099
 31
0.0
  0
LINE
  5
202
100
AcDbEntity
  8
側面図
370
              15
  6
Continuous
 62
               7
100
AcDbLine
 10
-770.89893594136902
 20
-14991.480803948099
 30
0.0
 11
-1254.8605189259099
 21
-15139.4427085138
 31
0.0
  0
LINE
  5
203
100
AcDbEntity
  8
側面図
370
              15
  6
Continuous
 62
               7
100
AcDbLine
 10
-1254.8605189259099
 20
-15139.4427085138
 30
0.0
 11
-1132.5381102291301
 21
-14036.487088906
 31
0.0
  0
LINE
  5
204
100
AcDbEntity
  8
側面図
370
              15
  6
Continuous
 62
               7
100
AcDbLine
 10
-1132.5381102291301
 20
-14036.487088906
 30
0.0
 11
-1284.3043802124801
 21
-13523.8150720756
 31
0.0
  0
LINE
  5
205
100
AcDbEntity
  8
側面図
370
              15
  6
Continuous
 62
               7
100
AcDbLine
 10
-1284.3043802124801
 20
-13523.8150720756
 30
0.0
 11
-1005.0801475165699
 21
-10986.0168557938
 31
0.0
  0
LINE
  5
206
100
AcDbEntity
  8
側面図
370
              15
  6
Continuous
 62
               7
100
AcDbLine
 10
-1005.0801475165699
 20
-10986.0168557938
 30
0.0
 11
-1139.1618505588301
 21
-10547.4553663072
 31
0.0
  0
LINE
  5
207
100
AcDbEntity
  8
側面図
370
              15
  6
Continuous
 62
               7
100
AcDbLine
 10
-1053.6090962739499
 20
-8082.7299586054696
 30
0.0
 11
-1166.90853097728
 21
-7722.1830623759297
 31
0.0
  0
LINE
  5
208
100
AcDbEntity
  8
側面図
370
              15
  6
Continuous
 62
               7
100
AcDbLine
 10
-701.07459081608113
 20
-7590.0727009553802
 30
0.0
 11
-1162.8407642295299
 21
-7725.44927145157
 31
0.0
  0
LINE
  5
209
100
AcDbEntity
  8
側面図
370
              15
  6
Continuous
 62
               7
100
AcDbLine
 10
-1053.6090962739499
 20
-8082.7299586054696
 30
0.0
 11
-1139.1618505588301
 21
-10547.4553663072
 31
0.0
  0
LINE
  5
20A
100
AcDbEntity
  8
側面図
370
               5
  6
Continuous
 62
               7
100
AcDbLine
 10
-4725.27517384558
 20
-5727.8355318026697
 30
0.0
 11
-4725.27517384558
 21
-5415.0
 31
0.0
  0
LINE
  5
20B
100
AcDbEntity
  8
側面図
370
               5
  6
Continuous
 62
               7
100
AcDbLine
 10
-4475.0
 20
-5727.7451589818938
 30
0.0
 11
-4475.0
 21
-5414.9096271792241
 31
0.0
  0
LINE
  5
20C
100
AcDbEntity
  8
側面図
370
               5
  6
Continuous
 62
               7
100
AcDbLine
 10
-4224.7840579898266
 20
-5727.6999725715059
 30
0.0
 11
-4224.7840579898266
 21
-5414.8644407688362
 31
0.0
  0
LINE
  5
20D
100
AcDbEntity
  8
側面図
370
               5
  6
Continuous
 62
               7
100
AcDbLine
 10
-3974.8589404773329
 20
-5727.654786161118
 30
0.0
 11
-3974.8589404773329
 21
-5414.8192543584482
 31
0.0
  0
LINE
  5
20E
100
AcDbEntity
  8
側面図
370
               5
  6
Continuous
 62
               7
100
AcDbLine
 10
-3674.6936851690507
 20
-5727.4740405195662
 30
0.0
 11
-3674.6936851690507
 21
-5414.6385087168965
 31
0.0
  0
LINE
  5
20F
100
AcDbEntity
  8
側面図
370
               5
  6
Continuous
 62
               7
100
AcDbLine
 10
-3174.5978120567725
 20
-5727.60959975073
 30
0.0
 11
-3174.5978120567725
 21
-5414.7740679480603
 31
0.0
  0
LINE
  5
210
100
AcDbEntity
  8
側面図
370
               5
  6
Continuous
 62
               7
100
AcDbLine
 10
-2774.9944997084981
 20
-5727.654786161118
 30
0.0
 11
-2774.9944997084981
 21
-5414.8192543584482
 31
0.0
  0
LINE
  5
211
100
AcDbEntity
  8
側面図
370
               5
  6
Continuous
 62
               7
100
AcDbLine
 10
-2500.0903728207768
 20
-5727.654786161118
 30
0.0
 11
-2500.0903728207768
 21
-5414.8192543584482
 31
0.0
  0
LINE
  5
212
100
AcDbEntity
  8
側面図
370
               5
  6
Continuous
 62
               7
100
AcDbLine
 10
-2225.0055002915019
 20
-5728.0614638546094
 30
0.0
 11
-2225.0055002915019
 21
-5415.2259320519397
 31
0.0
  0
LINE
  5
213
100
AcDbEntity
  8
側面図
370
               5
  6
Continuous
 62
               7
100
AcDbLine
 10
-1724.7233812461677
 20
-5727.7451589818938
 30
0.0
 11
-1724.7233812461677
 21
-5414.9096271792241
 31
0.0
  0
LINE
  5
214
100
AcDbEntity
  8
側面図
370
               5
  6
Continuous
 62
               7
100
AcDbLine
 10
-1324.8589404773327
 20
-5727.8355318026697
 30
0.0
 11
-1324.8589404773327
 21
-5415.0
 31
0.0
  0
LINE
  5
215
100
AcDbEntity
  8
側面図
370
               5
  6
Continuous
 62
               7
100
AcDbLine
 10
-675.0
 20
-5727.654786161118
 30
0.0
 11
-675.0
 21
-5414.8192543584482
 31
0.0
  0
LINE
  5
216
100
AcDbEntity
  8
側面図
370
               5
  6
Continuous
 62
               7
100
AcDbLine
 10
-374.95481358961172
 20
-5727.60959975073
 30
0.0
 11
-374.95481358961172
 21
-5414.7740679480603
 31
0.0
  0
LINE
  5
217
100
AcDbEntity
  8
側面図
370
               5
  6
Continuous
 62
               7
100
AcDbLine
 10
49.593322306505456
 20
-5727.4740405195662
 30
0.0
 11
49.593322306505456
 21
-5414.6385087168965
 31
0.0
  0
LINE
  5
218
100
AcDbEntity
  8
側面図
370
               5
  6
Continuous
 62
               7
100
AcDbLine
 10
404.46775311710979
 20
-5727.7451589818938
 30
0.0
 11
404.46775311710979
 21
-5414.9096271792241
 31
0.0
  0
LINE
  5
219
100
AcDbEntity
  8
側面図
370
               5
  6
Continuous
 62
               7
100
AcDbLine
 10
675.30631483094885
 20
-5727.60959975073
 30
0.0
 11
675.30631483094885
 21
-5414.7740679480603
 31
0.0
  0
LINE
  5
21A
100
AcDbEntity
  8
側面図
370
               5
  6
Continuous
 62
               7
100
AcDbLine
 10
949.77406794805859
 20
-5727.7903453922818
 30
0.0
 11
949.77406794805859
 21
-5414.9548135896121
 31
0.0
  0
LINE
  5
21B
100
AcDbEntity
  8
側面図
370
               5
  6
Continuous
 62
               7
100
AcDbLine
 10
1254.6429984671606
 20
-5727.6999725715059
 30
0.0
 11
1254.6429984671606
 21
-5414.8644407688362
 31
0.0
  0
LINE
  5
21C
100
AcDbEntity
  8
側面図
370
               5
  6
Continuous
 62
               7
100
AcDbLine
 10
1650.0903728207763
 20
-5727.654786161118
 30
0.0
 11
1650.0903728207763
 21
-5414.8192543584482
 31
0.0
  0
LINE
  5
21D
100
AcDbEntity
  8
側面図
370
               5
  6
Continuous
 62
               7
100
AcDbLine
 10
2004.2815071840548
 20
-5727.2932948780144
 30
0.0
 11
2004.2815071840548
 21
-5414.4577630753447
 31
0.0
  0
LINE
  5
21E
100
AcDbEntity
  8
側面図
370
               5
  6
Continuous
 62
               7
100
AcDbLine
 10
2350.0451864103879
 20
-5727.7451589818938
 30
0.0
 11
2350.0451864103879
 21
-5414.9096271792241
 31
0.0
  0
LINE
  5
21F
100
AcDbEntity
  8
側面図
370
               5
  6
Continuous
 62
               7
100
AcDbLine
 10
2600.0903728207768
 20
-5727.6999725715059
 30
0.0
 11
2600.0903728207768
 21
-5414.8644407688362
 31
0.0
  0
LINE
  5
220
100
AcDbEntity
  8
側面図
370
               5
  6
Continuous
 62
               7
100
AcDbLine
 10
2835.0
 20
-5727.60959975073
 30
0.0
 11
2835.0
 21
-5414.7740679480603
 31
0.0
  0
LINE
  5
221
100
AcDbEntity
  8
側面図
370
               5
  6
Continuous
 62
               7
100
AcDbLine
 10
3490.0
 20
-5727.5192269299541
 30
0.0
 11
3490.0
 21
-5414.6836951272844
 31
0.0
  0
LINE
  5
222
100
AcDbEntity
  8
側面図
370
               5
  6
Continuous
 62
               7
100
AcDbLine
 10
3925.3063148309488
 20
-5727.7451589818938
 30
0.0
 11
3925.3063148309488
 21
-5414.9096271792241
 31
0.0
  0
LINE
  5
223
100
AcDbEntity
  8
側面図
370
               5
  6
Continuous
 62
               7
100
AcDbLine
 10
5279.7388715794386
 20
-5727.3836676987903
 30
0.0
 11
5279.7388715794386
 21
-5414.5481358961206
 31
0.0
  0
LINE
  5
224
100
AcDbEntity
  8
側面図
370
               5
  6
Continuous
 62
               7
100
AcDbLine
 10
5525.0
 20
-5727.654786161118
 30
0.0
 11
5525.0
 21
-5414.8192543584482
 31
0.0
  0
LINE
  5
225
100
AcDbEntity
  8
側面図
370
               5
  6
Continuous
 62
               7
100
AcDbLine
 10
5774.8192543584482
 20
-5727.3384812884024
 30
0.0
 11
5774.8192543584482
 21
-5414.5029494857326
 31
0.0
  0
LINE
  5
226
100
AcDbEntity
  8
側面図
370
               5
  6
Continuous
 62
               7
100
AcDbLine
 10
-4722.1090074480235
 20
-5456.2914515878474
 30
0.0
 11
-4472.1090074480235
 21
-5456.2914515878474
 31
0.0
  0
SOLID
  5
227
100
AcDbEntity
  8
側面図
370
               5
 62
               7
100
AcDbTrace
 10
-4722.1090074480235
 20
-5456.2914515878474
 30
0.0
 11
-4652.0357652605235
 21
-5433.5232750222303
 31
0.0
 12
-4652.0357652605235
 22
-5479.0596281534645
 32
0.0
 13
-4652.0357652605235
 23
-5479.0596281534645
 33
0.0
  0
SOLID
  5
228
100
AcDbEntity
  8
側面図
370
               5
 62
               7
100
AcDbTrace
 10
-4472.1090074480235
 20
-5456.2914515878474
 30
0.0
 11
-4542.1822496355235
 21
-5479.0596281534645
 31
0.0
 12
-4542.1822496355235
 22
-5433.5232750222303
 32
0.0
 13
-4542.1822496355235
 23
-5433.5232750222303
 33
0.0
  0
MTEXT
  5
229
100
AcDbEntity
  8
側面図
 62
               7
100
AcDbMText
 10
-4626.8958506960607
 20
-4992.5711545091553
 30
0.0
 40
108.58940972222223
 41
140.0
 71
               1
 72
               1
  1
250
  7
@ＭＳ ゴシック (bold)
 73
               1
 44
0.7828267384257843
  0
LINE
  5
22A
100
AcDbEntity
  8
側面図
370
               5
  6
Continuous
 62
               7
100
AcDbLine
 10
-4470.0
 20
-5453.7525336281542
 30
0.0
 11
-4220.0
 21
-5453.7525336281542
 31
0.0
  0
SOLID
  5
22B
100
AcDbEntity
  8
側面図
370
               5
 62
               7
100
AcDbTrace
 10
-4470.0
 20
-5453.7525336281542
 30
0.0
 11
-4399.9267578125
 21
-5430.9843570625371
 31
0.0
 12
-4399.9267578125
 22
-5476.5207101937713
 32
0.0
 13
-4399.9267578125
 23
-5476.5207101937713
 33
0.0
  0
SOLID
  5
22C
100
AcDbEntity
  8
側面図
370
               5
 62
               7
100
AcDbTrace
 10
-4220.0
 20
-5453.7525336281542
 30
0.0
 11
-4290.0732421875
 21
-5476.5207101937713
 31
0.0
 12
-4290.0732421875
 22
-5430.9843570625371
 32
0.0
 13
-4290.0732421875
 23
-5430.9843570625371
 33
0.0
  0
MTEXT
  5
22D
100
AcDbEntity
  8
側面図
 62
               7
100
AcDbMText
 10
-4396.2474663718458
 20
-4990.580546054448
 30
0.0
 40
108.58940972222223
 41
140.0
 71
               1
 72
               1
  1
250
  7
@ＭＳ ゴシック (bold)
 73
               1
 44
0.7828267384257843
  0
LINE
  5
22E
100
AcDbEntity
  8
側面図
370
               5
  6
Continuous
 62
               7
100
AcDbLine
 10
-4220.3093329648073
 20
-5454.0618665929615
 30
0.0
 11
-3970.3093329648073
 21
-5454.0618665929615
 31
0.0
  0
SOLID
  5
22F
100
AcDbEntity
  8
側面図
370
               5
 62
               7
100
AcDbTrace
 10
-4220.3093329648073
 20
-5454.0618665929615
 30
0.0
 11
-4150.2360907773073
 21
-5431.2936900273444
 31
0.0
 12
-4150.2360907773073
 22
-5476.8300431585785
 32
0.0
 13
-4150.2360907773073
 23
-5476.8300431585785
 33
0.0
  0
SOLID
  5
230
100
AcDbEntity
  8
側面図
370
               5
 62
               7
100
AcDbTrace
 10
-3970.3093329648073
 20
-5454.0618665929615
 30
0.0
 11
-4040.3825751523073
 21
-5476.8300431585785
 31
0.0
 12
-4040.3825751523073
 22
-5431.2936900273444
 32
0.0
 13
-4040.3825751523073
 23
-5431.2936900273444
 33
0.0
  0
MTEXT
  5
231
100
AcDbEntity
  8
側面図
 62
               7
100
AcDbMText
 10
-4136.2474663718458
 20
-4988.7042792403709
 30
0.0
 40
108.58940972222223
 41
140.0
 71
               1
 72
               1
  1
250
  7
@ＭＳ ゴシック (bold)
 73
               1
 44
0.7828267384257843
  0
LINE
  5
232
100
AcDbEntity
  8
側面図
370
               5
  6
Continuous
 62
               7
100
AcDbLine
 10
-3967.8144002211156
 20
-5454.0618665929615
 30
0.0
 11
-3667.8144002211156
 21
-5454.0618665929615
 31
0.0
  0
SOLID
  5
233
100
AcDbEntity
  8
側面図
370
               5
 62
               7
100
AcDbTrace
 10
-3967.8144002211156
 20
-5454.0618665929615
 30
0.0
 11
-3897.7411580336156
 21
-5431.2936900273444
 31
0.0
 12
-3897.7411580336156
 22
-5476.8300431585785
 32
0.0
 13
-3897.7411580336156
 23
-5476.8300431585785
 33
0.0
  0
SOLID
  5
234
100
AcDbEntity
  8
側面図
370
               5
 62
               7
100
AcDbTrace
 10
-3667.8144002211156
 20
-5454.0618665929615
 30
0.0
 11
-3737.8876424086156
 21
-5476.8300431585785
 31
0.0
 12
-3737.8876424086156
 22
-5431.2936900273444
 32
0.0
 13
-3737.8876424086156
 23
-5431.2936900273444
 33
0.0
  0
MTEXT
  5
235
100
AcDbEntity
  8
側面図
 62
               7
100
AcDbMText
 10
-3860.0
 20
-5002.7661458333323
 30
0.0
 40
108.58940972222223
 41
140.0
 71
               1
 72
               1
  1
300
  7
@ＭＳ ゴシック (bold)
 73
               1
 44
0.7828267384257843
  0
LINE
  5
236
100
AcDbEntity
  8
側面図
370
               5
  6
Continuous
 62
               7
100
AcDbLine
 10
-3673.1338676985388
 20
-5454.0618665929615
 30
0.0
 11
-3173.1338676985451
 21
-5454.0618665929615
 31
0.0
  0
SOLID
  5
237
100
AcDbEntity
  8
側面図
370
               5
 62
               7
100
AcDbTrace
 10
-3673.1338676985388
 20
-5454.0618665929615
 30
0.0
 11
-3603.0606255110388
 21
-5431.2936900273444
 31
0.0
 12
-3603.0606255110388
 22
-5476.8300431585785
 32
0.0
 13
-3603.0606255110388
 23
-5476.8300431585785
 33
0.0
  0
SOLID
  5
238
100
AcDbEntity
  8
側面図
370
               5
 62
               7
100
AcDbTrace
 10
-3173.1338676985451
 20
-5454.0618665929615
 30
0.0
 11
-3243.2071098860451
 21
-5476.8300431585785
 31
0.0
 12
-3243.2071098860451
 22
-5431.2936900273444
 32
0.0
 13
-3243.2071098860451
 23
-5431.2936900273444
 33
0.0
  0
MTEXT
  5
239
100
AcDbEntity
  8
側面図
 62
               7
100
AcDbMText
 10
-3470.61866592961
 20
-5008.3949462755636
 30
0.0
 40
108.58940972222223
 41
140.0
 71
               1
 72
               1
  1
500
  7
@ＭＳ ゴシック (bold)
 73
               1
 44
0.7828267384257843
  0
LINE
  5
23A
100
AcDbEntity
  8
側面図
370
               5
  6
Continuous
 62
               7
100
AcDbLine
 10
-3169.0517320803369
 20
-5455.9381334070385
 30
0.0
 11
-2769.0517320803369
 21
-5455.9381334070385
 31
0.0
  0
SOLID
  5
23B
100
AcDbEntity
  8
側面図
370
               5
 62
               7
100
AcDbTrace
 10
-3169.0517320803369
 20
-5455.9381334070385
 30
0.0
 11
-3098.9784898928369
 21
-5433.1699568414215
 31
0.0
 12
-3098.9784898928369
 22
-5478.7063099726556
 32
0.0
 13
-3098.9784898928369
 23
-5478.7063099726556
 33
0.0
  0
SOLID
  5
23C
100
AcDbEntity
  8
側面図
370
               5
 62
               7
100
AcDbTrace
 10
-2769.0517320803369
 20
-5455.9381334070385
 30
0.0
 11
-2839.1249742678369
 21
-5478.7063099726556
 31
0.0
 12
-2839.1249742678369
 22
-5433.1699568414215
 32
0.0
 13
-2839.1249742678369
 23
-5433.1699568414215
 33
0.0
  0
MTEXT
  5
23D
100
AcDbEntity
  8
側面図
 62
               7
100
AcDbMText
 10
-3021.876266814078
 20
-5011.8381469389114
 30
0.0
 40
108.58940972222223
 41
140.0
 71
               1
 72
               1
  1
400
  7
@ＭＳ ゴシック (bold)
 73
               1
 44
0.7828267384257843
  0
LINE
  5
23E
100
AcDbEntity
  8
側面図
370
               5
  6
Continuous
 62
               7
100
AcDbLine
 10
-2770.0
 20
-5456.2474663718458
 30
0.0
 11
-2495.0
 21
-5456.2474663718458
 31
0.0
  0
SOLID
  5
23F
100
AcDbEntity
  8
側面図
370
               5
 62
               7
100
AcDbTrace
 10
-2770.0
 20
-5456.2474663718458
 30
0.0
 11
-2699.9267578125
 21
-5433.4792898062287
 31
0.0
 12
-2699.9267578125
 22
-5479.0156429374629
 32
0.0
 13
-2699.9267578125
 23
-5479.0156429374629
 33
0.0
  0
SOLID
  5
240
100
AcDbEntity
  8
側面図
370
               5
 62
               7
100
AcDbTrace
 10
-2495.0
 20
-5456.2474663718458
 30
0.0
 11
-2565.0732421875
 21
-5479.0156429374629
 31
0.0
 12
-2565.0732421875
 22
-5433.4792898062287
 32
0.0
 13
-2565.0732421875
 23
-5433.4792898062287
 33
0.0
  0
MTEXT
  5
241
100
AcDbEntity
  8
側面図
 62
               7
100
AcDbMText
 10
-2678.433066150727
 20
-5012.7661458333332
 30
0.0
 40
108.58940972222223
 41
140.0
 71
               1
 72
               1
  1
275
  7
@ＭＳ ゴシック (bold)
 73
               1
 44
0.7828267384257843
  0
LINE
  5
242
100
AcDbEntity
  8
側面図
370
               5
  6
Continuous
 62
               7
100
AcDbLine
 10
-2494.061866592961
 20
-5453.7525336281542
 30
0.0
 11
-2219.061866592961
 21
-5453.7525336281542
 31
0.0
  0
SOLID
  5
243
100
AcDbEntity
  8
側面図
370
               5
 62
               7
100
AcDbTrace
 10
-2494.061866592961
 20
-5453.7525336281542
 30
0.0
 11
-2423.988624405461
 21
-5430.9843570625371
 31
0.0
 12
-2423.988624405461
 22
-5476.5207101937713
 32
0.0
 13
-2423.988624405461
 23
-5476.5207101937713
 33
0.0
  0
SOLID
  5
244
100
AcDbEntity
  8
側面図
370
               5
 62
               7
100
AcDbTrace
 10
-2219.061866592961
 20
-5453.7525336281542
 30
0.0
 11
-2289.135108780461
 21
-5476.5207101937713
 31
0.0
 12
-2289.135108780461
 22
-5430.9843570625371
 32
0.0
 13
-2289.135108780461
 23
-5430.9843570625371
 33
0.0
  0
MTEXT
  5
245
100
AcDbEntity
  8
側面図
 62
               7
100
AcDbMText
 10
-2404.680532522571
 20
-5016.5186794614874
 30
0.0
 40
108.58940972222223
 41
140.0
 71
               1
 72
               1
  1
275
  7
@ＭＳ ゴシック (bold)
 73
               1
 44
0.7828267384257843
  0
LINE
  5
246
100
AcDbEntity
  8
側面図
370
               5
  6
Continuous
 62
               7
100
AcDbLine
 10
-2224.061866592961
 20
-5454.0618665929615
 30
0.0
 11
-1724.0618665929674
 21
-5454.0618665929615
 31
0.0
  0
SOLID
  5
247
100
AcDbEntity
  8
側面図
370
               5
 62
               7
100
AcDbTrace
 10
-2224.061866592961
 20
-5454.0618665929615
 30
0.0
 11
-2153.988624405461
 21
-5431.2936900273444
 31
0.0
 12
-2153.988624405461
 22
-5476.8300431585785
 32
0.0
 13
-2153.988624405461
 23
-5476.8300431585785
 33
0.0
  0
SOLID
  5
248
100
AcDbEntity
  8
側面図
370
               5
 62
               7
100
AcDbTrace
 10
-1724.0618665929674
 20
-5454.0618665929615
 30
0.0
 11
-1794.1351087804674
 21
-5476.8300431585785
 31
0.0
 12
-1794.1351087804674
 22
-5431.2936900273444
 32
0.0
 13
-1794.1351087804674
 23
-5431.2936900273444
 33
0.0
  0
MTEXT
  5
249
100
AcDbEntity
  8
側面図
 62
               7
100
AcDbMText
 10
-2022.185599778883
 20
-5024.3330796826031
 30
0.0
 40
108.58940972222223
 41
140.0
 71
               1
 72
               1
  1
500
  7
@ＭＳ ゴシック (bold)
 73
               1
 44
0.7828267384257843
  0
LINE
  5
24A
100
AcDbEntity
  8
側面図
370
               5
  6
Continuous
 62
               7
100
AcDbLine
 10
-1720.0
 20
-5455.6288004422313
 30
0.0
 11
-1320.0
 21
-5455.6288004422313
 31
0.0
  0
SOLID
  5
24B
100
AcDbEntity
  8
側面図
370
               5
 62
               7
100
AcDbTrace
 10
-1720.0
 20
-5455.6288004422313
 30
0.0
 11
-1649.9267578125
 21
-5432.8606238766142
 31
0.0
 12
-1649.9267578125
 22
-5478.3969770078484
 32
0.0
 13
-1649.9267578125
 23
-5478.3969770078484
 33
0.0
  0
SOLID
  5
24C
100
AcDbEntity
  8
側面図
370
               5
 62
               7
100
AcDbTrace
 10
-1320.0
 20
-5455.6288004422313
 30
0.0
 11
-1390.0732421875
 21
-5478.3969770078484
 31
0.0
 12
-1390.0732421875
 22
-5432.8606238766142
 32
0.0
 13
-1390.0732421875
 23
-5432.8606238766142
 33
0.0
  0
MTEXT
  5
24D
100
AcDbEntity
  8
側面図
 62
               7
100
AcDbMText
 10
-1576.247466371844
 20
-5024.6424126474103
 30
0.0
 40
108.58940972222223
 41
140.0
 71
               1
 72
               1
  1
400
  7
@ＭＳ ゴシック (bold)
 73
               1
 44
0.7828267384257843
  0
LINE
  5
24E
100
AcDbEntity
  8
側面図
370
               5
  6
Continuous
 62
               7
100
AcDbLine
 10
-1316.5770683618919
 20
-5453.7525336281542
 30
0.0
 11
-666.57706836189186
 21
-5453.7525336281542
 31
0.0
  0
SOLID
  5
24F
100
AcDbEntity
  8
側面図
370
               5
 62
               7
100
AcDbTrace
 10
-1316.5770683618919
 20
-5453.7525336281542
 30
0.0
 11
-1246.5038261743919
 21
-5430.9843570625371
 31
0.0
 12
-1246.5038261743919
 22
-5476.5207101937713
 32
0.0
 13
-1246.5038261743919
 23
-5476.5207101937713
 33
0.0
  0
SOLID
  5
250
100
AcDbEntity
  8
側面図
370
               5
 62
               7
100
AcDbTrace
 10
-666.57706836189186
 20
-5453.7525336281542
 30
0.0
 11
-736.65031054939186
 21
-5476.5207101937713
 31
0.0
 12
-736.65031054939186
 22
-5430.9843570625371
 32
0.0
 13
-736.65031054939186
 23
-5430.9843570625371
 33
0.0
  0
MTEXT
  5
251
100
AcDbEntity
  8
側面図
 62
               7
100
AcDbMText
 10
-1050.3093329648061
 20
-5024.333079682604
 30
0.0
 40
108.58940972222223
 41
140.0
 71
               1
 72
               1
  1
650
  7
@ＭＳ ゴシック (bold)
 73
               1
 44
0.7828267384257843
  0
LINE
  5
252
100
AcDbEntity
  8
側面図
370
               5
  6
Continuous
 62
               7
100
AcDbLine
 10
-670.0
 20
-5455.9381334070385
 30
0.0
 11
-370.0
 21
-5455.9381334070385
 31
0.0
  0
SOLID
  5
253
100
AcDbEntity
  8
側面図
370
               5
 62
               7
100
AcDbTrace
 10
-670.0
 20
-5455.9381334070385
 30
0.0
 11
-599.9267578125
 21
-5433.1699568414215
 31
0.0
 12
-599.9267578125
 22
-5478.7063099726556
 32
0.0
 13
-599.9267578125
 23
-5478.7063099726556
 33
0.0
  0
SOLID
  5
254
100
AcDbEntity
  8
側面図
370
               5
 62
               7
100
AcDbTrace
 10
-370.0
 20
-5455.9381334070385
 30
0.0
 11
-440.0732421875
 21
-5478.7063099726556
 31
0.0
 12
-440.0732421875
 22
-5433.1699568414215
 32
0.0
 13
-440.0732421875
 23
-5433.1699568414215
 33
0.0
  0
MTEXT
  5
255
100
AcDbEntity
  8
側面図
 62
               7
100
AcDbMText
 10
-564.68053252257346
 20
-5022.7661458333323
 30
0.0
 40
108.58940972222223
 41
140.0
 71
               1
 72
               1
  1
300
  7
@ＭＳ ゴシック (bold)
 73
               1
 44
0.7828267384257843
  0
LINE
  5
256
100
AcDbEntity
  8
側面図
370
               5
  6
Continuous
 62
               7
100
AcDbLine
 10
-370.0
 20
-5457.8144002211156
 30
0.0
 11
55.0
 21
-5457.8144002211156
 31
0.0
  0
SOLID
  5
257
100
AcDbEntity
  8
側面図
370
               5
 62
               7
100
AcDbTrace
 10
-370.0
 20
-5457.8144002211156
 30
0.0
 11
-299.9267578125
 21
-5435.0462236554986
 31
0.0
 12
-299.9267578125
 22
-5480.5825767867327
 32
0.0
 13
-299.9267578125
 23
-5480.5825767867327
 33
0.0
  0
SOLID
  5
258
100
AcDbEntity
  8
側面図
370
               5
 62
               7
100
AcDbTrace
 10
55.0
 20
-5457.8144002211156
 30
0.0
 11
-15.0732421875
 21
-5480.5825767867327
 31
0.0
 12
-15.0732421875
 22
-5435.0462236554986
 32
0.0
 13
-15.0732421875
 23
-5435.0462236554986
 33
0.0
  0
MTEXT
  5
259
100
AcDbEntity
  8
側面図
 62
               7
100
AcDbMText
 10
-206.86613230145554
 20
-5032.7661458333332
 30
0.0
 40
108.58940972222223
 41
140.0
 71
               1
 72
               1
  1
425
  7
@ＭＳ ゴシック (bold)
 73
               1
 44
0.7828267384257843
  0
LINE
  5
25A
100
AcDbEntity
  8
側面図
370
               5
  6
Continuous
 62
               7
100
AcDbLine
 10
51.876266814077781
 20
-5460.0
 30
0.0
 11
401.87626681407778
 21
-5460.0
 31
0.0
  0
SOLID
  5
25B
100
AcDbEntity
  8
側面図
370
               5
 62
               7
100
AcDbTrace
 10
51.876266814077781
 20
-5460.0
 30
0.0
 11
121.94950900157778
 21
-5437.2318234343829
 31
0.0
 12
121.94950900157778
 22
-5482.7681765656171
 32
0.0
 13
121.94950900157778
 23
-5482.7681765656171
 33
0.0
  0
SOLID
  5
25C
100
AcDbEntity
  8
側面図
370
               5
 62
               7
100
AcDbTrace
 10
401.87626681407778
 20
-5460.0
 30
0.0
 11
331.80302462657778
 21
-5482.7681765656171
 31
0.0
 12
331.80302462657778
 22
-5437.2318234343829
 32
0.0
 13
331.80302462657778
 23
-5437.2318234343829
 33
0.0
  0
MTEXT
  5
25D
100
AcDbEntity
  8
側面図
 62
               7
100
AcDbMText
 10
179.3813340703889
 20
-5036.5186794614874
 30
0.0
 40
108.58940972222223
 41
140.0
 71
               1
 72
               1
  1
350
  7
@ＭＳ ゴシック (bold)
 73
               1
 44
0.7828267384257843
  0
LINE
  5
25E
100
AcDbEntity
  8
側面図
370
               5
  6
Continuous
 62
               7
100
AcDbLine
 10
405.93813340703889
 20
-5461.8762668140771
 30
0.0
 11
680.93813340703889
 21
-5461.8762668140771
 31
0.0
  0
SOLID
  5
25F
100
AcDbEntity
  8
側面図
370
               5
 62
               7
100
AcDbTrace
 10
405.93813340703889
 20
-5461.8762668140771
 30
0.0
 11
476.01137559453889
 21
-5439.10809024846
 31
0.0
 12
476.01137559453889
 22
-5484.6444433796942
 32
0.0
 13
476.01137559453889
 23
-5484.6444433796942
 33
0.0
  0
SOLID
  5
260
100
AcDbEntity
  8
側面図
370
               5
 62
               7
100
AcDbTrace
 10
680.93813340703889
 20
-5461.8762668140771
 30
0.0
 11
610.86489121953889
 21
-5484.6444433796942
 31
0.0
 12
610.86489121953889
 22
-5439.10809024846
 32
0.0
 13
610.86489121953889
 23
-5439.10809024846
 33
0.0
  0
MTEXT
  5
261
100
AcDbEntity
  8
側面図
 62
               7
100
AcDbMText
 10
502.18559977888333
 20
-5035.2610785770257
 30
0.0
 40
108.58940972222223
 41
140.0
 71
               1
 72
               1
  1
275
  7
@ＭＳ ゴシック (bold)
 73
               1
 44
0.7828267384257843
  0
LINE
  5
262
100
AcDbEntity
  8
側面図
370
               5
  6
Continuous
 62
               7
100
AcDbLine
 10
682.18559977888333
 20
-5464.0618665929615
 30
0.0
 11
957.18559977888333
 21
-5464.0618665929615
 31
0.0
  0
SOLID
  5
263
100
AcDbEntity
  8
側面図
370
               5
 62
               7
100
AcDbTrace
 10
682.18559977888333
 20
-5464.0618665929615
 30
0.0
 11
752.25884196638333
 21
-5441.2936900273444
 31
0.0
 12
752.25884196638333
 22
-5486.8300431585785
 32
0.0
 13
752.25884196638333
 23
-5486.8300431585785
 33
0.0
  0
SOLID
  5
264
100
AcDbEntity
  8
側面図
370
               5
 62
               7
100
AcDbTrace
 10
957.18559977888333
 20
-5464.0618665929615
 30
0.0
 11
887.11235759138333
 21
-5486.8300431585785
 31
0.0
 12
887.11235759138333
 22
-5441.2936900273444
 32
0.0
 13
887.11235759138333
 23
-5441.2936900273444
 33
0.0
  0
MTEXT
  5
265
100
AcDbEntity
  8
側面図
 62
               7
100
AcDbMText
 10
763.44320066335001
 20
-5032.7661458333323
 30
0.0
 40
108.58940972222223
 41
140.0
 71
               1
 72
               1
  1
275
  7
@ＭＳ ゴシック (bold)
 73
               1
 44
0.7828267384257843
  0
LINE
  5
266
100
AcDbEntity
  8
側面図
370
               5
  6
Continuous
 62
               7
100
AcDbLine
 10
951.87626681407778
 20
-5460.0
 30
0.0
 11
1251.8762668140778
 21
-5460.0
 31
0.0
  0
SOLID
  5
267
100
AcDbEntity
  8
側面図
370
               5
 62
               7
100
AcDbTrace
 10
951.87626681407778
 20
-5460.0
 30
0.0
 11
1021.9495090015778
 21
-5437.2318234343829
 31
0.0
 12
1021.9495090015778
 22
-5482.7681765656171
 32
0.0
 13
1021.9495090015778
 23
-5482.7681765656171
 33
0.0
  0
SOLID
  5
268
100
AcDbEntity
  8
側面図
370
               5
 62
               7
100
AcDbTrace
 10
1251.8762668140778
 20
-5460.0
 30
0.0
 11
1181.8030246265778
 21
-5482.7681765656171
 31
0.0
 12
1181.8030246265778
 22
-5437.2318234343829
 32
0.0
 13
1181.8030246265778
 23
-5437.2318234343829
 33
0.0
  0
MTEXT
  5
269
100
AcDbEntity
  8
側面図
 62
               7
100
AcDbMText
 10
1061.5669338492721
 20
-5030.580546054448
 30
0.0
 40
108.58940972222223
 41
140.0
 71
               1
 72
               1
  1
300
  7
@ＭＳ ゴシック (bold)
 73
               1
 44
0.7828267384257843
  0
LINE
  5
26A
100
AcDbEntity
  8
側面図
370
               5
  6
Continuous
 62
               7
100
AcDbLine
 10
1253.7525336281556
 20
-5461.8762668140771
 30
0.0
 11
1653.7525336281551
 21
-5461.8762668140771
 31
0.0
  0
SOLID
  5
26B
100
AcDbEntity
  8
側面図
370
               5
 62
               7
100
AcDbTrace
 10
1253.7525336281556
 20
-5461.8762668140771
 30
0.0
 11
1323.8257758156556
 21
-5439.10809024846
 31
0.0
 12
1323.8257758156556
 22
-5484.6444433796942
 32
0.0
 13
1323.8257758156556
 23
-5484.6444433796942
 33
0.0
  0
SOLID
  5
26C
100
AcDbEntity
  8
側面図
370
               5
 62
               7
100
AcDbTrace
 10
1653.7525336281551
 20
-5461.8762668140771
 30
0.0
 11
1583.6792914406551
 21
-5484.6444433796942
 31
0.0
 12
1583.6792914406551
 22
-5439.10809024846
 32
0.0
 13
1583.6792914406551
 23
-5439.10809024846
 33
0.0
  0
MTEXT
  5
26D
100
AcDbEntity
  8
側面図
 62
               7
100
AcDbMText
 10
1400.0
 20
-5039.0136122051799
 30
0.0
 40
108.58940972222223
 41
140.0
 71
               1
 72
               1
  1
400
  7
@ＭＳ ゴシック (bold)
 73
               1
 44
0.7828267384257843
  0
LINE
  5
26E
100
AcDbEntity
  8
側面図
370
               5
  6
Continuous
 62
               7
100
AcDbLine
 10
1650.0
 20
-5463.7525336281542
 30
0.0
 11
2000.0
 21
-5463.7525336281542
 31
0.0
  0
SOLID
  5
26F
100
AcDbEntity
  8
側面図
370
               5
 62
               7
100
AcDbTrace
 10
1650.0
 20
-5463.7525336281542
 30
0.0
 11
1720.0732421875
 21
-5440.9843570625371
 31
0.0
 12
1720.0732421875
 22
-5486.5207101937713
 32
0.0
 13
1720.0732421875
 23
-5486.5207101937713
 33
0.0
  0
SOLID
  5
270
100
AcDbEntity
  8
側面図
370
               5
 62
               7
100
AcDbTrace
 10
2000.0
 20
-5463.7525336281542
 30
0.0
 11
1929.9267578125
 21
-5486.5207101937713
 31
0.0
 12
1929.9267578125
 22
-5440.9843570625371
 32
0.0
 13
1929.9267578125
 23
-5440.9843570625371
 33
0.0
  0
LINE
  5
271
100
AcDbEntity
  8
側面図
370
               5
  6
Continuous
 62
               7
100
AcDbLine
 10
2005.6288004422327
 20
-5464.0618665929615
 30
0.0
 11
2355.6288004422327
 21
-5464.0618665929615
 31
0.0
  0
SOLID
  5
272
100
AcDbEntity
  8
側面図
370
               5
 62
               7
100
AcDbTrace
 10
2005.6288004422327
 20
-5464.0618665929615
 30
0.0
 11
2075.7020426297327
 21
-5441.2936900273444
 31
0.0
 12
2075.7020426297327
 22
-5486.8300431585785
 32
0.0
 13
2075.7020426297327
 23
-5486.8300431585785
 33
0.0
  0
SOLID
  5
273
100
AcDbEntity
  8
側面図
370
               5
 62
               7
100
AcDbTrace
 10
2355.6288004422327
 20
-5464.0618665929615
 30
0.0
 11
2285.5555582547327
 21
-5486.8300431585785
 31
0.0
 12
2285.5555582547327
 22
-5441.2936900273444
 32
0.0
 13
2285.5555582547327
 23
-5441.2936900273444
 33
0.0
  0
MTEXT
  5
274
100
AcDbEntity
  8
側面図
 62
               7
100
AcDbMText
 10
1781.2576008844653
 20
-5036.5186794614865
 30
0.0
 40
108.58940972222223
 41
140.0
 71
               1
 72
               1
  1
350
  7
@ＭＳ ゴシック (bold)
 73
               1
 44
0.7828267384257843
  0
MTEXT
  5
275
100
AcDbEntity
  8
側面図
 62
               7
100
AcDbMText
 10
2135.9381334070385
 20
-5037.1373453911019
 30
0.0
 40
108.58940972222223
 41
140.0
 71
               1
 72
               1
  1
350
  7
@ＭＳ ゴシック (bold)
 73
               1
 44
0.7828267384257843
  0
LINE
  5
276
100
AcDbEntity
  8
側面図
370
               5
  6
Continuous
 62
               7
100
AcDbLine
 10
2356.2474663718449
 20
-5468.1237331859229
 30
0.0
 11
2606.247466371844
 21
-5468.1237331859229
 31
0.0
  0
SOLID
  5
277
100
AcDbEntity
  8
側面図
370
               5
 62
               7
100
AcDbTrace
 10
2356.2474663718449
 20
-5468.1237331859229
 30
0.0
 11
2426.3207085593449
 21
-5445.3555566203058
 31
0.0
 12
2426.3207085593449
 22
-5490.89190975154
 32
0.0
 13
2426.3207085593449
 23
-5490.89190975154
 33
0.0
  0
SOLID
  5
278
100
AcDbEntity
  8
側面図
370
               5
 62
               7
100
AcDbTrace
 10
2606.247466371844
 20
-5468.1237331859229
 30
0.0
 11
2536.174224184344
 21
-5490.89190975154
 31
0.0
 12
2536.174224184344
 22
-5445.3555566203058
 32
0.0
 13
2536.174224184344
 23
-5445.3555566203058
 33
0.0
  0
MTEXT
  5
279
100
AcDbEntity
  8
側面図
 62
               7
100
AcDbMText
 10
2431.8762668140776
 20
-5040.889879019257
 30
0.0
 40
108.58940972222223
 41
140.0
 71
               1
 72
               1
  1
250
  7
@ＭＳ ゴシック (bold)
 73
               1
 44
0.7828267384257843
  0
LINE
  5
27A
100
AcDbEntity
  8
側面図
370
               5
  6
Continuous
 62
               7
100
AcDbLine
 10
2593.7525336281551
 20
-5469.6906670351927
 30
0.0
 11
2843.7525336281551
 21
-5469.6906670351927
 31
0.0
  0
SOLID
  5
27B
100
AcDbEntity
  8
側面図
370
               5
 62
               7
100
AcDbTrace
 10
2593.7525336281551
 20
-5469.6906670351927
 30
0.0
 11
2663.8257758156551
 21
-5446.9224904695757
 31
0.0
 12
2663.8257758156551
 22
-5492.4588436008098
 32
0.0
 13
2663.8257758156551
 23
-5492.4588436008098
 33
0.0
  0
SOLID
  5
27C
100
AcDbEntity
  8
側面図
370
               5
 62
               7
100
AcDbTrace
 10
2843.7525336281551
 20
-5469.6906670351927
 30
0.0
 11
2773.6792914406551
 21
-5492.4588436008098
 31
0.0
 12
2773.6792914406551
 22
-5446.9224904695757
 32
0.0
 13
2773.6792914406551
 23
-5446.9224904695757
 33
0.0
  0
MTEXT
  5
27D
100
AcDbEntity
  8
側面図
 62
               7
100
AcDbMText
 10
2679.690667035195
 20
-5036.8280124262947
 30
0.0
 40
108.58940972222223
 41
140.0
 71
               1
 72
               1
  1
235
  7
@ＭＳ ゴシック (bold)
 73
               1
 44
0.7828267384257843
  0
LINE
  5
27E
100
AcDbEntity
  8
側面図
370
               5
  6
Continuous
 62
               7
100
AcDbLine
 10
2843.4229316381029
 20
-5470.0
 30
0.0
 11
3493.4229316381029
 21
-5470.0
 31
0.0
  0
SOLID
  5
27F
100
AcDbEntity
  8
側面図
370
               5
 62
               7
100
AcDbTrace
 10
2843.4229316381029
 20
-5470.0
 30
0.0
 11
2913.4961738256029
 21
-5447.2318234343829
 31
0.0
 12
2913.4961738256029
 22
-5492.7681765656171
 32
0.0
 13
2913.4961738256029
 23
-5492.7681765656171
 33
0.0
  0
SOLID
  5
280
100
AcDbEntity
  8
側面図
370
               5
 62
               7
100
AcDbTrace
 10
3493.4229316381029
 20
-5470.0
 30
0.0
 11
3423.3496894506029
 21
-5492.7681765656171
 31
0.0
 12
3423.3496894506029
 22
-5447.2318234343829
 32
0.0
 13
3423.3496894506029
 23
-5447.2318234343829
 33
0.0
  0
MTEXT
  5
281
100
AcDbEntity
  8
側面図
 62
               7
100
AcDbMText
 10
3109.690667035195
 20
-5042.7661458333332
 30
0.0
 40
108.58940972222223
 41
140.0
 71
               1
 72
               1
  1
650
  7
@ＭＳ ゴシック (bold)
 73
               1
 44
0.7828267384257843
  0
LINE
  5
282
100
AcDbEntity
  8
側面図
370
               5
  6
Continuous
 62
               7
100
AcDbLine
 10
3489.9999999999995
 20
-5467.8144002211156
 30
0.0
 11
3929.9999999999995
 21
-5467.8144002211156
 31
0.0
  0
SOLID
  5
283
100
AcDbEntity
  8
側面図
370
               5
 62
               7
100
AcDbTrace
 10
3489.9999999999995
 20
-5467.8144002211156
 30
0.0
 11
3560.0732421874995
 21
-5445.0462236554986
 31
0.0
 12
3560.0732421874995
 22
-5490.5825767867327
 32
0.0
 13
3560.0732421874995
 23
-5490.5825767867327
 33
0.0
  0
SOLID
  5
284
100
AcDbEntity
  8
側面図
370
               5
 62
               7
100
AcDbTrace
 10
3929.9999999999995
 20
-5467.8144002211156
 30
0.0
 11
3859.9267578124995
 21
-5490.5825767867327
 31
0.0
 12
3859.9267578124995
 22
-5445.0462236554986
 32
0.0
 13
3859.9267578124995
 23
-5445.0462236554986
 33
0.0
  0
MTEXT
  5
285
100
AcDbEntity
  8
側面図
 62
               7
100
AcDbMText
 10
3663.1338676985461
 20
-5042.7661458333341
 30
0.0
 40
108.58940972222223
 41
140.0
 71
               1
 72
               1
  1
440
  7
@ＭＳ ゴシック (bold)
 73
               1
 44
0.7828267384257843
  0
LINE
  5
286
100
AcDbEntity
  8
側面図
370
               5
  6
Continuous
 62
               7
100
AcDbLine
 10
3930.9077298691668
 20
-5465.9381334070385
 30
0.0
 11
5280.9077298691882
 21
-5465.9381334070385
 31
0.0
  0
SOLID
  5
287
100
AcDbEntity
  8
側面図
370
               5
 62
               7
100
AcDbTrace
 10
3930.9077298691668
 20
-5465.9381334070385
 30
0.0
 11
4000.9809720566668
 21
-5443.1699568414215
 31
0.0
 12
4000.9809720566668
 22
-5488.7063099726556
 32
0.0
 13
4000.9809720566668
 23
-5488.7063099726556
 33
0.0
  0
SOLID
  5
288
100
AcDbEntity
  8
側面図
370
               5
 62
               7
100
AcDbTrace
 10
5280.9077298691882
 20
-5465.9381334070385
 30
0.0
 11
5210.8344876816882
 21
-5488.7063099726556
 31
0.0
 12
5210.8344876816882
 22
-5443.1699568414215
 32
0.0
 13
5210.8344876816882
 23
-5443.1699568414215
 33
0.0
  0
MTEXT
  5
289
100
AcDbEntity
  8
側面図
 62
               7
100
AcDbMText
 10
4404.7008015478186
 20
-5262.1474799037187
 30
0.0
 40
108.58940972222223
 41
420.0
 71
               1
 72
               1
  1
1,350
  7
ＭＳ ゴシック (bold)
 73
               1
 44
0.7828267384257843
  0
LINE
  5
28A
100
AcDbEntity
  8
側面図
370
               5
  6
Continuous
 62
               7
100
AcDbLine
 10
5278.1237331859238
 20
-5465.9381334070385
 30
0.0
 11
5528.123733185922
 21
-5465.9381334070385
 31
0.0
  0
SOLID
  5
28B
100
AcDbEntity
  8
側面図
370
               5
 62
               7
100
AcDbTrace
 10
5278.1237331859238
 20
-5465.9381334070385
 30
0.0
 11
5348.1969753734238
 21
-5443.1699568414215
 31
0.0
 12
5348.1969753734238
 22
-5488.7063099726556
 32
0.0
 13
5348.1969753734238
 23
-5488.7063099726556
 33
0.0
  0
SOLID
  5
28C
100
AcDbEntity
  8
側面図
370
               5
 62
               7
100
AcDbTrace
 10
5528.123733185922
 20
-5465.9381334070385
 30
0.0
 11
5458.050490998422
 21
-5488.7063099726556
 31
0.0
 12
5458.050490998422
 22
-5443.1699568414215
 32
0.0
 13
5458.050490998422
 23
-5443.1699568414215
 33
0.0
  0
LINE
  5
28D
100
AcDbEntity
  8
側面図
370
               5
  6
Continuous
 62
               7
100
AcDbLine
 10
5526.2474663718458
 20
-5465.9381334070385
 30
0.0
 11
5776.247466371844
 21
-5465.9381334070385
 31
0.0
  0
SOLID
  5
28E
100
AcDbEntity
  8
側面図
370
               5
 62
               7
100
AcDbTrace
 10
5526.2474663718458
 20
-5465.9381334070385
 30
0.0
 11
5596.3207085593458
 21
-5443.1699568414215
 31
0.0
 12
5596.3207085593458
 22
-5488.7063099726556
 32
0.0
 13
5596.3207085593458
 23
-5488.7063099726556
 33
0.0
  0
SOLID
  5
28F
100
AcDbEntity
  8
側面図
370
               5
 62
               7
100
AcDbTrace
 10
5776.247466371844
 20
-5465.9381334070385
 30
0.0
 11
5706.174224184344
 21
-5488.7063099726556
 31
0.0
 12
5706.174224184344
 22
-5443.1699568414215
 32
0.0
 13
5706.174224184344
 23
-5443.1699568414215
 33
0.0
  0
MTEXT
  5
290
100
AcDbEntity
  8
側面図
 62
               7
100
AcDbMText
 10
5363.7525336281542
 20
-5032.7661458333332
 30
0.0
 40
108.58940972222223
 41
140.0
 71
               1
 72
               1
  1
250
  7
@ＭＳ ゴシック (bold)
 73
               1
 44
0.7828267384257843
  0
MTEXT
  5
291
100
AcDbEntity
  8
側面図
 62
               7
100
AcDbMText
 10
5610.0
 20
-5032.7661458333332
 30
0.0
 40
108.58940972222223
 41
140.0
 71
               1
 72
               1
  1
250
  7
@ＭＳ ゴシック (bold)
 73
               1
 44
0.7828267384257843
  0
MTEXT
  5
292
100
AcDbEntity
  8
側面図
 62
               7
100
AcDbMText
 10
4282.9880739085565
 20
-5806.6913498550593
 30
0.0
 40
162.88411458333334
 41
671.11111111111131
 71
               1
 72
               1
  1
すのこ
  7
System (bold)
 73
               1
 44
0.7828267384257843
  0
MTEXT
  5
293
100
AcDbEntity
  8
側面図
 62
               7
100
AcDbMText
 10
-4807.2948255967694
 20
-4493.043121578402
 30
0.0
 40
135.7367621527778
 41
237.86225423485575
 71
               1
 72
               1
  1
緞帳
  7
HGSｺﾞｼｯｸM
 73
               1
 44
0.7828267384257842
  0
MTEXT
  5
294
100
AcDbEntity
  8
側面図
 62
               7
100
AcDbMText
 10
-4477.2948255967694
 20
-4203.0904535121272
 30
0.0
 40
135.7367621527778
 41
180.0
 71
               2
 72
               1
  1
バ\Pト\Pン\P１
  7
HGPｺﾞｼｯｸM
 73
               1
 44
0.7828267384257842
  0
MTEXT
  5
295
100
AcDbEntity
  8
側面図
 62
               7
100
AcDbMText
 10
-4210.0
 20
-4335.8766551035133
 30
0.0
 40
135.7367621527778
 41
180.0
 71
               2
 72
               1
  1
暗転幕
  7
HGPｺﾞｼｯｸM
 73
               1
 44
0.7828267384257842
  0
MTEXT
  5
296
100
AcDbEntity
  8
側面図
 62
               7
100
AcDbMText
 10
-3990.4735924478782
 20
-4354.0633125001541
 30
0.0
 40
135.7367621527778
 41
180.0
 71
               2
 72
               1
  1
袖幕\P1
  7
HGPｺﾞｼｯｸM
 73
               1
 44
0.7828267384257842
  0
MTEXT
  5
297
100
AcDbEntity
  8
側面図
 62
               7
100
AcDbMText
 10
-3692.3679622393911
 20
-4354.5369049480314
 30
0.0
 40
135.7367621527778
 41
180.0
 71
               2
 72
               1
  1
BL\P1
  7
HGPｺﾞｼｯｸM
 73
               1
 44
0.7828267384257842
  0
MTEXT
  5
298
100
AcDbEntity
  8
側面図
 62
               7
100
AcDbMText
 10
-3189.5264075521222
 20
-4345.957682291667
 30
0.0
 40
135.7367621527778
 41
180.0
 71
               2
 72
               1
  1
SL\P1
  7
HGPｺﾞｼｯｸM
 73
               1
 44
0.7828267384257842
  0
MTEXT
  5
299
100
AcDbEntity
  8
側面図
 62
               7
100
AcDbMText
 10
-2783.3151471351443
 20
-4163.0615690098402
 30
0.0
 40
135.7367621527778
 41
180.0
 71
               2
 72
               1
  1
バ\Pト\Pン\P2
  7
HGPｺﾞｼｯｸM
 73
               1
 44
0.7828267384257842
  0
MTEXT
  5
29A
100
AcDbEntity
  8
側面図
 62
               7
100
AcDbMText
 10
-2470.0
 20
-3989.2182708322571
 30
0.0
 40
135.7367621527778
 41
180.0
 71
               2
 72
               1
  1
一文字幕2
  7
HGPｺﾞｼｯｸM
 73
               1
 44
0.7828267384257842
  0
MTEXT
  5
29B
100
AcDbEntity
  8
側面図
 62
               7
100
AcDbMText
 10
-2250.0
 20
-4161.6953502607621
 30
0.0
 40
135.7367621527778
 41
180.0
 71
               2
 72
               1
  1
引割幕1
  7
HGPｺﾞｼｯｸM
 73
               1
 44
0.7828267384257842
  0
MTEXT
  5
29C
100
AcDbEntity
  8
側面図
 62
               7
100
AcDbMText
 10
-1882.185599778883
 20
-4354.5369049480314
 30
0.0
 40
135.7367621527778
 41
180.0
 71
               2
 72
               1
  1
BL\P2
  7
HGPｺﾞｼｯｸM
 73
               1
 44
0.7828267384257842
  0
MTEXT
  5
29D
100
AcDbEntity
  8
側面図
 62
               7
100
AcDbMText
 10
-1680.0
 20
-4007.3784596353007
 30
0.0
 40
135.7367621527778
 41
180.0
 71
               2
 72
               1
  1
スクリ｜\Pン\P
  7
HGPｺﾞｼｯｸM
 73
               1
 44
0.7828267384257842
  0
MTEXT
  5
29E
100
AcDbEntity
  8
側面図
 62
               7
100
AcDbMText
 10
-1415.6831093745354
 20
-3994.0087539055976
 30
0.0
 40
135.7367621527778
 41
180.0
 71
               1
 72
               1
  1
天井反射板
  7
HGPｺﾞｼｯｸM
 73
               1
 44
0.7828267384257842
  0
MTEXT
  5
29F
100
AcDbEntity
  8
側面図
 62
               7
100
AcDbMText
 10
-387.15844531273206
 20
-4315.9576822916661
 30
0.0
 40
135.7367621527778
 41
180.0
 71
               2
 72
               1
  1
袖幕\P2
  7
HGPｺﾞｼｯｸM
 73
               1
 44
0.7828267384257842
  0
MTEXT
  5
2A0
100
AcDbEntity
  8
側面図
 62
               7
100
AcDbMText
 10
38.105630208488037
 20
-4322.1689427086403
 30
0.0
 40
135.7367621527778
 41
180.0
 71
               2
 72
               1
  1
SL\P2
  7
HGPｺﾞｼｯｸM
 73
               1
 44
0.7828267384257842
  0
MTEXT
  5
2A1
100
AcDbEntity
  8
側面図
 62
               7
100
AcDbMText
 10
386.21126041697653
 20
-4149.7464218746927
 30
0.0
 40
135.7367621527778
 41
180.0
 71
               2
 72
               1
  1
バ\Pト\Pン\P3
  7
HGPｺﾞｼｯｸM
 73
               1
 44
0.7828267384257842
  0
MTEXT
  5
2A2
100
AcDbEntity
  8
側面図
 62
               7
100
AcDbMText
 10
680.0
 20
-4147.3784596353016
 30
0.0
 40
135.7367621527778
 41
180.0
 71
               2
 72
               1
  1
バ\Pト\Pン\P4
  7
HGPｺﾞｼｯｸM
 73
               1
 44
0.7828267384257842
  0
MTEXT
  5
2A3
100
AcDbEntity
  8
側面図
 62
               7
100
AcDbMText
 10
940.0
 20
-3969.2182708322562
 30
0.0
 40
135.7367621527778
 41
180.0
 71
               2
 72
               1
  1
一文字幕3
  7
HGPｺﾞｼｯｸM
 73
               1
 44
0.7828267384257842
  0
MTEXT
  5
2A4
100
AcDbEntity
  8
側面図
 62
               7
100
AcDbMText
 10
1270.0
 20
-4139.7464218746927
 30
0.0
 40
135.7367621527778
 41
180.0
 71
               2
 72
               1
  1
引割幕2
  7
HGPｺﾞｼｯｸM
 73
               1
 44
0.7828267384257842
  0
MTEXT
  5
2A5
100
AcDbEntity
  8
側面図
 62
               7
100
AcDbMText
 10
1665.2095169266579
 20
-4142.5305639209801
 30
0.0
 40
135.7367621527778
 41
180.0
 71
               2
 72
               1
  1
バ\Pト\Pン\P5
  7
HGPｺﾞｼｯｸM
 73
               1
 44
0.7828267384257842
  0
MTEXT
  5
2A6
100
AcDbEntity
  8
側面図
 62
               7
100
AcDbMText
 10
2000.0
 20
-4311.1586265351016
 30
0.0
 40
135.7367621527778
 41
180.0
 71
               2
 72
               1
  1
SL\P3
  7
HGPｺﾞｼｯｸM
 73
               1
 44
0.7828267384257842
  0
MTEXT
  5
2A7
100
AcDbEntity
  8
側面図
 62
               7
100
AcDbMText
 10
2360.0
 20
-3960.6390481758917
 30
0.0
 40
135.7367621527778
 41
180.0
 71
               2
 72
               1
  1
一文字幕4
  7
HGPｺﾞｼｯｸM
 73
               1
 44
0.7828267384257842
  0
MTEXT
  5
2A8
100
AcDbEntity
  8
側面図
 62
               7
100
AcDbMText
 10
2596.6302942702887
 20
-4305.4840898437897
 30
0.0
 40
135.7367621527778
 41
180.0
 71
               2
 72
               1
  1
袖幕\P3
  7
HGPｺﾞｼｯｸM
 73
               1
 44
0.7828267384257842
  0
MTEXT
  5
2A9
100
AcDbEntity
  8
側面図
 62
               7
100
AcDbMText
 10
2840.0
 20
-4120.6936067704482
 30
0.0
 40
135.7367621527778
 41
180.0
 71
               2
 72
               1
  1
バ\Pト\Pン\P6
  7
HGPｺﾞｼｯｸM
 73
               1
 44
0.7828267384257842
  0
MTEXT
  5
2AA
100
AcDbEntity
  8
側面図
 62
               7
100
AcDbMText
 10
3385.4305948073643
 20
-3948.3256445310572
 30
0.0
 40
135.7367621527778
 41
180.0
 71
               1
 72
               1
  1
正面反射板
  7
HGPｺﾞｼｯｸM
 73
               1
 44
0.7828267384257842
  0
MTEXT
  5
2AB
100
AcDbEntity
  8
側面図
 62
               7
100
AcDbMText
 10
3940.0
 20
-4305.957682291667
 30
0.0
 40
135.7367621527778
 41
180.0
 71
               2
 72
               1
  1
U\PH\PL
  7
HGPｺﾞｼｯｸM
 73
               1
 44
0.7828267384257842
  0
MTEXT
  5
2AC
100
AcDbEntity
  8
側面図
 62
               7
100
AcDbMText
 10
5264.7904830733396
 20
-4094.0633125001541
 30
0.0
 40
135.7367621527778
 41
180.0
 71
               2
 72
               1
  1
バ\Pト\Pン\P7
  7
HGPｺﾞｼｯｸM
 73
               1
 44
0.7828267384257842
  0
MTEXT
  5
2AD
100
AcDbEntity
  8
側面図
 62
               7
100
AcDbMText
 10
5763.722754258818
 20
-3713.3123739916018
 30
0.0
 40
135.7367621527778
 41
180.0
 71
               2
 72
               1
  1
ホリゾント\P幕
  7
HGPｺﾞｼｯｸM
 73
               1
 44
0.7828267384257842
  0
INSERT
  5
2AE
100
AcDbEntity
  8
側面図
 62
               7
100
AcDbBlockReference
  2
グループ
 10
546.51062300765716
 20
-11550.799490040052
 30
0.0
  0
ENDSEC
  0
SECTION
  2
OBJECTS
  0
DICTIONARY
  5
19
100
AcDbDictionary
280
               0
281
               1
  3
ACAD_GROUP
350
1A
  3
ACAD_MLINESTYLE
350
1B
  3
ACAD_LAYOUT
350
1E
  3
ACAD_PLOTSETTINGS
350
22
  3
ACAD_PLOTSTYLENAME
350
1F
  3
ACAD_WIPEOUT_VARS
350
23
  0
DICTIONARY
  5
1A
102
{ACAD_REACTORS
330
19
102
}
100
AcDbDictionary
280
               0
281
               1
  0
DICTIONARY
  5
1B
102
{ACAD_REACTORS
330
19
102
}
100
AcDbDictionary
280
               0
281
               1
  3
Standard
350
1C
  0
MLINESTYLE
  5
1C
102
{ACAD_REACTORS
330
1B
102
}
100
AcDbMlineStyle
  2
Standard
 70
               0
  3

 62
               0
 51
90.0
 52
90.0
 71
               2
 49
0.5
 62
             256
  6
ByLayer
 49
-0.5
 62
             256
  6
ByLayer
  0
ACDBDICTIONARYWDFLT
  5
1F
102
{ACAD_REACTORS
330
19
102
}
100
AcDbDictionary
281
               1
  3
Normal
350
1D
100
AcDbDictionaryWithDefault
340
1D
  0
ACDBPLACEHOLDER
  5
1D
102
{ACAD_REACTORS
330
1F
102
}
  0
LAYOUT
  5
20
102
{ACAD_REACTORS
330
1E
102
}
100
AcDbPlotSettings
  1

  2

  4

  6

 40
0.0
 41
0.0
 42
0.0
 43
0.0
 44
0.0
 45
0.0
 46
0.0
 47
0.0
 48
0.0
 49
0.0
140
0.0
141
0.0
142
1.0
143
1.0
 70
            1024
 72
               0
 73
               0
 74
               0
  7

 75
               0
147
1.0
148
0.0
149
0.0
100
AcDbLayout
  1
Model
 70
               0
 71
               0
 10
0.0
 20
0.0
 11
0.0
 21
0.0
 12
0.0
 22
0.0
 32
0.0
 14
0.0
 24
0.0
 34
0.0
 15
0.0
 25
0.0
 35
0.0
146
0.0
 13
0.0
 23
0.0
 33
0.0
 16
0.0
 26
0.0
 36
0.0
 17
0.0
 27
0.0
 37
0.0
 76
               0
330
A
331
0
345
0
346
0
  0
LAYOUT
  5
21
102
{ACAD_REACTORS
330
1E
102
}
100
AcDbPlotSettings
  1

  2

  4

  6

 40
0.0
 41
0.0
 42
0.0
 43
0.0
 44
0.0
 45
0.0
 46
0.0
 47
0.0
 48
0.0
 49
0.0
140
0.0
141
0.0
142
1.0
143
1.0
 70
               0
 72
               0
 73
               0
 74
               0
  7

 75
               0
147
1.0
148
0.0
149
0.0
100
AcDbLayout
  1
Layout1
 70
               0
 71
               0
 10
0.0
 20
0.0
 11
0.0
 21
0.0
 12
0.0
 22
0.0
 32
0.0
 14
0.0
 24
0.0
 34
0.0
 15
0.0
 25
0.0
 35
0.0
146
0.0
 13
0.0
 23
0.0
 33
0.0
 16
0.0
 26
0.0
 36
0.0
 17
0.0
 27
0.0
 37
0.0
 76
               0
330
B
331
0
345
0
346
0
  0
DICTIONARY
  5
1E
102
{ACAD_REACTORS
330
19
102
}
100
AcDbDictionary
280
               0
281
               1
  3
Layout1
350
21
  3
Model
350
20
  0
DICTIONARY
  5
22
102
{ACAD_REACTORS
330
19
102
}
100
AcDbDictionary
280
               0
281
               1
  0
WIPEOUTVARIABLES
  5
23
100
AcDbWipeoutVariables
 70
               0
  0
ENDSEC
  0
EOF
