  0
SECTION
  2
HEADER
  9
$ACADVER
  1
AC1015
  9
$ACADMAINTVER
 70
               6
  9
$DWGCODEPAGE
  3
ANSI_932
  9
$INSBASE
 10
0.0
 20
0.0
 30
0.0
  9
$EXTMIN
 10
-17099.792258883554
 20
-9700.0
 30
-204.78749999999999
  9
$EXTMAX
 10
16622.314395625544
 20
15936.70408800033
 30
204.78749999999999
  9
$LIMMIN
 10
0.0
 20
0.0
  9
$LIMMAX
 10
0.0
 20
0.0
  9
$ORTHOMODE
 70
               0
  9
$REGENMODE
 70
               1
  9
$FILLMODE
 70
               1
  9
$QTEXTMODE
 70
               0
  9
$MIRRTEXT
 70
               1
  9
$LTSCALE
 40
1016.0
  9
$ATTMODE
 70
               1
  9
$TEXTSIZE
 40
0.2
  9
$TRACEWID
 40
1.0
  9
$TEXTSTYLE
  7
Standard
  9
$CLAYER
  8
平面図
  9
$CELTYPE
  6
Continuous
  9
$CECOLOR
 62
             256
  9
$CELTSCALE
 40
1.0
  9
$DISPSILH
 70
               0
  9
$DIMSCALE
 40
1.0
  9
$DIMASZ
 40
0.18
  9
$DIMEXO
 40
0.0625
  9
$DIMDLI
 40
0.38
  9
$DIMRND
 40
0.0
  9
$DIMDLE
 40
0.0
  9
$DIMEXE
 40
0.18
  9
$DIMTP
 40
0.0
  9
$DIMTM
 40
0.0
  9
$DIMTXT
 40
0.18
  9
$DIMCEN
 40
0.09
  9
$DIMTSZ
 40
0.0
  9
$DIMTOL
 70
               0
  9
$DIMLIM
 70
               0
  9
$DIMTIH
 70
               1
  9
$DIMTOH
 70
               1
  9
$DIMSE1
 70
               0
  9
$DIMSE2
 70
               0
  9
$DIMTAD
 70
               0
  9
$DIMZIN
 70
               0
  9
$DIMBLK
  1

  9
$DIMASO
 70
               1
  9
$DIMSHO
 70
               1
  9
$DIMPOST
  1

  9
$DIMAPOST
  1

  9
$DIMALT
 70
               0
  9
$DIMALTD
 70
               2
  9
$DIMALTF
 40
25.399999999999999
  9
$DIMLFAC
 40
1.0
  9
$DIMTOFL
 70
               0
  9
$DIMTVP
 40
0.0
  9
$DIMTIX
 70
               0
  9
$DIMSOXD
 70
               0
  9
$DIMSAH
 70
               0
  9
$DIMBLK1
  1

  9
$DIMBLK2
  1

  9
$DIMSTYLE
  2
Standard
  9
$DIMCLRD
 70
               0
  9
$DIMCLRE
 70
               0
  9
$DIMCLRT
 70
               0
  9
$DIMTFAC
 40
1.0
  9
$DIMGAP
 40
0.09
  9
$DIMJUST
 70
               0
  9
$DIMSD1
 70
               0
  9
$DIMSD2
 70
               0
  9
$DIMTOLJ
 70
               1
  9
$DIMTZIN
 70
               0
  9
$DIMALTZ
 70
               0
  9
$DIMALTTZ
 70
               0
  9
$DIMUPT
 70
               0
  9
$DIMDEC
 70
               4
  9
$DIMTDEC
 70
               4
  9
$DIMALTU
 70
               2
  9
$DIMALTTD
 70
               2
  9
$DIMTXSTY
  7
Standard
  9
$DIMAUNIT
 70
               0
  9
$DIMADEC
 70
               0
  9
$DIMALTRND
 40
0.0
  9
$DIMAZIN
 70
               0
  9
$DIMDSEP
 70
               0
  9
$DIMATFIT
 70
               3
  9
$DIMFRAC
 70
               0
  9
$DIMLDRBLK
  1

  9
$DIMLUNIT
 70
               2
  9
$DIMLWD
 70
               0
  9
$DIMLWE
 70
               0
  9
$DIMTMOVE
 70
               0
  9
$LUNITS
 70
               2
  9
$LUPREC
 70
               4
  9
$SKETCHINC
 40
0.1
  9
$FILLETRAD
 40
0.0
  9
$AUNITS
 70
               0
  9
$AUPREC
 70
               0
  9
$MENU
  1
acad
  9
$ELEVATION
 40
0.0
  9
$PELEVATION
 40
0.0
  9
$THICKNESS
 40
0.0
  9
$LIMCHECK
 70
               0
  9
$CHAMFERA
 40
0.0
  9
$CHAMFERB
 40
0.0
  9
$CHAMFERC
 40
0.0
  9
$CHAMFERD
 40
0.0
  9
$SKPOLY
 70
               0
  9
$TDCREATE
 40
2456999.481597222
  9
$TDUCREATE
 40
0.000000000
  9
$TDUPDATE
 40
2456999.481597222
  9
$TDUUPDATE
 40
0.000000000
  9
$TDINDWG
 40
0.0000000000
  9
$TDUSRTIMER
 40
0.0000000000
  9
$USRTIMER
 70
               1
  9
$ANGBASE
 50
0.0
  9
$ANGDIR
 70
               0
  9
$PDMODE
 70
               1
  9
$PDSIZE
 40
-2.0
  9
$PLINEWID
 40
0.0
  9
$SPLFRAME
 70
               0
  9
$SPLINETYPE
 70
               6
  9
$SPLINESEGS
 70
               8
  9
$HANDSEED
  5
4C9
  9
$SURFTAB1
 70
               6
  9
$SURFTAB2
 70
               6
  9
$SURFTYPE
 70
               6
  9
$SURFU
 70
               6
  9
$SURFV
 70
               6
  9
$UCSBASE
  2

  9
$UCSNAME
  2

  9
$UCSORG
 10
0.0
 20
0.0
 30
0.0
  9
$UCSXDIR
 10
1.0
 20
0.0
 30
0.0
  9
$UCSYDIR
 10
0.0
 20
1.0
 30
0.0
  9
$UCSORTHOREF
  2

  9
$UCSORTHOVIEW
 70
               0
  9
$UCSORGTOP
 10
0.0
 20
0.0
 30
0.0
  9
$UCSORGBOTTOM
 10
0.0
 20
0.0
 30
0.0
  9
$UCSORGLEFT
 10
0.0
 20
0.0
 30
0.0
  9
$UCSORGRIGHT
 10
0.0
 20
0.0
 30
0.0
  9
$UCSORGFRONT
 10
0.0
 20
0.0
 30
0.0
  9
$UCSORGBACK
 10
0.0
 20
0.0
 30
0.0
  9
$PUCSBASE
  2

  9
$PUCSNAME
  2

  9
$PUCSORG
 10
0.0
 20
0.0
 30
0.0
  9
$PUCSXDIR
 10
1.0
 20
0.0
 30
0.0
  9
$PUCSYDIR
 10
0.0
 20
1.0
 30
0.0
  9
$PUCSORTHOREF
  2

  9
$PUCSORTHOVIEW
 70
               0
  9
$PUCSORGTOP
 10
0.0
 20
0.0
 30
0.0
  9
$PUCSORGBOTTOM
 10
0.0
 20
0.0
 30
0.0
  9
$PUCSORGLEFT
 10
0.0
 20
0.0
 30
0.0
  9
$PUCSORGRIGHT
 10
0.0
 20
0.0
 30
0.0
  9
$PUCSORGFRONT
 10
0.0
 20
0.0
 30
0.0
  9
$PUCSORGBACK
 10
0.0
 20
0.0
 30
0.0
  9
$USERI1
 70
               0
  9
$USERI2
 70
               0
  9
$USERI3
 70
               0
  9
$USERI4
 70
               0
  9
$USERI5
 70
               0
  9
$USERR1
 40
0.0
  9
$USERR2
 40
0.0
  9
$USERR3
 40
0.0
  9
$USERR4
 40
0.0
  9
$USERR5
 40
0.0
  9
$WORLDVIEW
 70
               1
  9
$SHADEDGE
 70
               3
  9
$SHADEDIF
 70
              70
  9
$TILEMODE
 70
               1
  9
$MAXACTVP
 70
              64
  9
$PINSBASE
 10
0.0
 20
0.0
 30
0.0
  9
$PLIMCHECK
 70
               0
  9
$PEXTMIN
 10
1.0000000000000000E+20
 20
1.0000000000000000E+20
 30
1.0000000000000000E+20
  9
$PEXTMAX
 10
-1.0000000000000000E+20
 20
-1.0000000000000000E+20
 30
-1.0000000000000000E+20
  9
$PLIMMIN
 10
0.0
 20
0.0
  9
$PLIMMAX
 10
12.0
 20
9.0
  9
$UNITMODE
 70
               0
  9
$VISRETAIN
 70
               0
  9
$PLINEGEN
 70
               1
  9
$PSLTSCALE
 70
               0
  9
$TREEDEPTH
 70
            3020
  9
$CMLSTYLE
  2
Standard
  9
$CMLJUST
 70
               0
  9
$CMLSCALE
 40
1.0
  9
$PROXYGRAPHICS
 70
               0
  9
$MEASUREMENT
 70
               1
  9
$CELWEIGHT
370
               0
  9
$ENDCAPS
280
               0
  9
$JOINSTYLE
280
               0
  9
$LWDISPLAY
290
               1
  9
$INSUNITS
 70
               4
  9
$HYPERLINKBASE
  1

  9
$STYLESHEET
  1

  9
$XEDIT
290
               1
  9
$CEPSNTYPE
380
               0
  9
$PSTYLEMODE
290
               1
  9
$FINGERPRINTGUID
  2

  9
$VERSIONGUID
  2

  9
$EXTNAMES
290
               1
  9
$PSVPSCALE
 40
0.0
  0
ENDSEC
  0
SECTION
  2
CLASSES
  0
CLASS
  1
LWPOLYLINE
  2
AcDbPolyline
  3
AutoCAD 2000
 90
    32768
280
               0
281
               1
  0
CLASS
  1
IMAGE
  2
AcDbRasterImage
  3
ISM
 90
    32895
280
               0
281
               1
  0
CLASS
  1
OLE2FRAME
  2
AcDbOle2Frame
  3
AutoCAD 2000
 90
    32768
280
               0
281
               1
  0
CLASS
  1
HATCH
  2
AcDbHatch
  3
AutoCAD 2000
 90
    32768
280
               0
281
               1
  0
CLASS
  1
DICTIONARYVAR
  2
AcDbDictionaryVar
  3
AutoCAD 2000
 90
    32768
280
               0
281
               0
  0
CLASS
  1
RASTERVARIABLES
  2
AcDbRasterVariables
  3
ISM
 90
    32768
280
               0
281
               0
  0
CLASS
  1
IMAGEDEF
  2
AcDbRasterImageDef
  3
ISM
 90
    32768
280
               0
281
               0
  0
CLASS
  1
IMAGEDEF_REACTOR
  2
AcDbRasterImageDefReactor
  3
ISM
 90
    32769
280
               0
281
               0
  0
CLASS
  1
IDBUFFER
  2
AcDbIdBuffer
  3
AutoCAD 2000
 90
    32768
280
               0
281
               0
  0
CLASS
  1
SPATIAL_FILTER
  2
AcDbSpatialFilter
  3
AutoCAD 2000
 90
    32768
280
               0
281
               0
  0
CLASS
  1
XRECORD
  2
AcDbXrecord
  3
AutoCAD 2000
 90
    32768
280
               0
281
               0
  0
CLASS
  1
SORTENTSTABLE
  2
AcDbSortentsTable
  3
AutoCAD 2000
 90
    32768
280
               0
281
               0
  0
CLASS
  1
LAYER_INDEX
  2
AcDbLayerIndex
  3
AutoCAD 2000
 90
    32768
280
               0
281
               0
  0
CLASS
  1
SPATIAL_INDEX
  2
AcDbSpatialIndex
  3
AutoCAD 2000
 90
    32768
280
               0
281
               0
  0
CLASS
  1
OBJECT_PTR
  2
CAseDLPNTableRecord
  3
"ASE-LPNTableRecord"
 90
    32769
280
               0
281
               0
  0
CLASS
  1
LAYOUT
  2
AcDbLayout
  3
AutoCAD 2000
 90
        0
280
               0
281
               0
  0
CLASS
  1
PLOTSETTINGS
  2
AcDbPlotSettings
  3
AutoCAD 2000
 90
    32768
280
               0
281
               0
  0
CLASS
  1
ACDBDICTIONARYWDFLT
  2
AcDbDictionaryWithDefault
  3
AutoCAD 2000
 90
        0
280
               0
281
               0
  0
CLASS
  1
ACDBPLACEHOLDER
  2
AcDbPlaceHolder
  3
AutoCAD 2000
 90
        0
280
               0
281
               0
  0
CLASS
  1
VBA_PROJECT
  2
AcDbVbaProject
  3
acadvba
 90
    32768
280
               0
281
               0
  0
CLASS
  1
WIPEOUT
  2
AcDbWipeout
  3
WipeOut|AutoCAD Express Tool|expresstools@autodesk.com
 90
    32895
280
               0
281
               1
  0
CLASS
  1
WIPEOUTVARIABLES
  2
AcDbWipeoutVariables
  3
WipeOut|AutoCAD Express Tool|expresstools@autodesk.com
 90
        0
280
               0
281
               0
  0
CLASS
  1
RTEXT
  2
RText
  3
RText|AutoCAD Express Tool|expresstools@autodesk.com
 90
    32768
280
               0
281
               1
  0
CLASS
  1
ARCALIGNEDTEXT
  2
AcDbArcAlignedText
  3
ATEXT|AutoCAD Express Tool|expresstools@autodesk.com
 90
    32768
280
               0
281
               1
  0
ENDSEC
  0
SECTION
  2
TABLES
  0
TABLE
  2
VPORT
  5
7
100
AcDbSymbolTable
 70
               1
  0
VPORT
  5
15
100
AcDbSymbolTableRecord
100
AcDbViewportTableRecord
  2
*ACTIVE
 70
               0
 10
0.0
 20
0.0
 11
1.0
 21
1.0
 12
-238.73893162900276
 22
3118.3520440001648
 13
0.0
 23
0.0
 14
1.0
 24
1.0
 15
0.0
 25
0.0
 16
0.0
 26
0.0
 36
1.0
 17
0.0
 27
0.0
 37
0.0
 40
25636.70408800033
 41
0.688564
 42
50.0
 43
0.0
 44
0.0
 50
0.0
 51
0.0
 71
               0
 72
            2000
 73
               1
 74
               1
 75
               0
 76
               0
 77
               0
 78
               0
281
               0
 65
               0
110
0.0
120
0.0
130
0.0
111
1.0
121
0.0
131
0.0
112
0.0
122
1.0
132
0.0
345
0
346
0
 79
               0
146
0.0
  0
ENDTAB
  0
TABLE
  2
LTYPE
  5
4
100
AcDbSymbolTable
 70
              13
  0
LTYPE
  5
11
100
AcDbSymbolTableRecord
100
AcDbLinetypeTableRecord
  2
ByBlock
 70
              64
  3

 72
              65
 73
               0
 40
0.0
  0
LTYPE
  5
12
100
AcDbSymbolTableRecord
100
AcDbLinetypeTableRecord
  2
ByLayer
 70
              64
  3

 72
              65
 73
               0
 40
0.0
  0
LTYPE
  5
13
100
AcDbSymbolTableRecord
100
AcDbLinetypeTableRecord
  2
Continuous
 70
              64
  3
Solid line
 72
              65
 73
               0
 40
0.0
  0
LTYPE
  5
2C
100
AcDbSymbolTableRecord
100
AcDbLinetypeTableRecord
  2
STYLE_01
 70
               0
  3

 72
              65
 73
               2
 40
0.41664
 49
0.20828
 74
               0
 49
-0.20836
 74
               0
  0
LTYPE
  5
2D
100
AcDbSymbolTableRecord
100
AcDbLinetypeTableRecord
  2
STYLE_02
 70
               0
  3

 72
              65
 73
               2
 40
0.6944250000000001
 49
0.48607
 74
               0
 49
-0.2083550000000001
 74
               0
  0
LTYPE
  5
2E
100
AcDbSymbolTableRecord
100
AcDbLinetypeTableRecord
  2
STYLE_03
 70
               0
  3

 72
              65
 73
               2
 40
1.25
 49
1.0416400000000001
 74
               0
 49
-0.2083599999999999
 74
               0
  0
LTYPE
  5
2F
100
AcDbSymbolTableRecord
100
AcDbLinetypeTableRecord
  2
STYLE_04
 70
               0
  3

 72
              65
 73
               2
 40
1.5277099999999999
 49
1.3194249999999998
 74
               0
 49
-0.208285
 74
               0
  0
LTYPE
  5
30
100
AcDbSymbolTableRecord
100
AcDbLinetypeTableRecord
  2
STYLE_05
 70
               0
  3

 72
              65
 73
               2
 40
0.20828
 49
0.069425
 74
               0
 49
-0.138855
 74
               0
  0
LTYPE
  5
31
100
AcDbSymbolTableRecord
100
AcDbLinetypeTableRecord
  2
STYLE_06
 70
               0
  3

 72
              65
 73
               4
 40
1.0416400000000001
 49
0.625
 74
               0
 49
-0.20828
 74
               0
 49
0.06943
 74
               0
 49
-0.13893
 74
               0
  0
LTYPE
  5
32
100
AcDbSymbolTableRecord
100
AcDbLinetypeTableRecord
  2
STYLE_07
 70
               0
  3

 72
              65
 73
               6
 40
1.875
 49
0.625
 74
               0
 49
-0.20828
 74
               0
 49
0.6250000000000001
 74
               0
 49
-0.2083599999999999
 74
               0
 49
0.06943
 74
               0
 49
-0.1389299999999999
 74
               0
  0
LTYPE
  5
33
100
AcDbSymbolTableRecord
100
AcDbLinetypeTableRecord
  2
STYLE_08
 70
               0
  3

 72
              65
 73
               6
 40
1.25
 49
0.625
 74
               0
 49
-0.20828
 74
               0
 49
0.06943
 74
               0
 49
-0.13893
 74
               0
 49
0.0694299999999999
 74
               0
 49
-0.13893
 74
               0
  0
LTYPE
  5
34
100
AcDbSymbolTableRecord
100
AcDbLinetypeTableRecord
  2
STYLE_09
 70
               0
  3

 72
              65
 73
               4
 40
5.0
 49
3.75
 74
               0
 49
-0.2777849999999998
 74
               0
 49
0.6944300000000003
 74
               0
 49
-0.2777849999999998
 74
               0
  0
LTYPE
  5
35
100
AcDbSymbolTableRecord
100
AcDbLinetypeTableRecord
  2
STYLE_10
 70
               0
  3

 72
              65
 73
               6
 40
5.9375
 49
3.75
 74
               0
 49
-0.2777849999999998
 74
               0
 49
0.6944300000000003
 74
               0
 49
-0.2777849999999998
 74
               0
 49
0.625
 74
               0
 49
-0.3125
 74
               0
  0
ENDTAB
  0
TABLE
  2
LAYER
  5
2
100
AcDbSymbolTable
 70
               6
  0
LAYER
  5
14
100
AcDbSymbolTableRecord
100
AcDbLayerTableRecord
  2
0
 70
               0
 62
               7
  6
Continuous
290
               1
370
              -3
390
1D
  0
LAYER
  5
36
100
AcDbSymbolTableRecord
100
AcDbLayerTableRecord
  2
間線
 70
               0
 62
               7
  6
Continuous
290
               1
370
              -3
390
1D
  0
LAYER
  5
37
100
AcDbSymbolTableRecord
100
AcDbLayerTableRecord
  2
反響版
 70
               0
 62
               7
  6
Continuous
290
               1
370
              -3
390
1D
  0
LAYER
  5
38
100
AcDbSymbolTableRecord
100
AcDbLayerTableRecord
  2
照明コンセント
 70
               0
 62
               7
  6
Continuous
290
               1
370
              -3
390
1D
  0
LAYER
  5
39
100
AcDbSymbolTableRecord
100
AcDbLayerTableRecord
  2
音響コンセント
 70
               0
 62
               7
  6
Continuous
290
               1
370
              -3
390
1D
  0
LAYER
  5
3A
100
AcDbSymbolTableRecord
100
AcDbLayerTableRecord
  2
平面図
 70
               0
 62
               7
  6
Continuous
290
               1
370
              -3
390
1D
  0
ENDTAB
  0
TABLE
  2
STYLE
  5
3
100
AcDbSymbolTable
 70
               3
  0
STYLE
  5
17
100
AcDbSymbolTableRecord
100
AcDbTextStyleTableRecord
  2
Standard
 70
               0
 40
0.0
 41
1.0
 50
0.0
 71
               0
 42
0.0
  3
txt
  4
BIGFONT.SHX
  0
STYLE
  5
2A
100
AcDbSymbolTableRecord
100
AcDbTextStyleTableRecord
  2
ＭＳ ゴシック
 70
               0
 40
0.0
 41
1.0
 50
0.0
 71
               0
 42
0.0
  3

  4
ＭＳ ゴシック
1001
ACAD
1000
ＭＳ ゴシック
1071
        0
  0
STYLE
  5
2B
100
AcDbSymbolTableRecord
100
AcDbTextStyleTableRecord
  2
ＭＳ ゴシック (bold)
 70
               0
 40
0.0
 41
1.0
 50
0.0
 71
               0
 42
0.0
  3

  4
ＭＳ ゴシック
1001
ACAD
1000
ＭＳ ゴシック
1071
 33554432
  0
ENDTAB
  0
TABLE
  2
VIEW
  5
5
100
AcDbSymbolTable
 70
               0
  0
ENDTAB
  0
TABLE
  2
UCS
  5
6
100
AcDbSymbolTable
 70
               0
  0
ENDTAB
  0
TABLE
  2
APPID
  5
8
100
AcDbSymbolTable
 70
               1
  0
APPID
  5
16
100
AcDbSymbolTableRecord
100
AcDbRegAppTableRecord
  2
ACAD
 70
               0
  0
ENDTAB
  0
TABLE
  2
DIMSTYLE
  5
9
100
AcDbSymbolTable
 70
               1
100
AcDbDimStyleTable
 71
               0
  0
DIMSTYLE
105
18
100
AcDbSymbolTableRecord
100
AcDbDimStyleTableRecord
  2
Standard
 70
               0
  3

  4

 40
1.0
 41
0.18
 42
0.0625
 43
0.38
 44
0.18
 45
0.0
 46
0.0
 47
0.0
 48
0.0
 71
               0
 72
               0
 73
               1
 74
               1
 75
               0
 76
               0
 77
               0
 78
               0
 79
               0
140
0.18
141
0.09
142
0.0
143
25.399999999999999
144
1.0
145
0.0
146
1.0
147
0.09
148
0.0
170
               0
171
               2
172
               0
173
               0
174
               0
175
               0
176
               0
177
               0
178
               0
179
               0
271
               4
272
               4
273
               2
274
               2
275
               0
276
               0
277
               2
278
              46
279
               0
280
               0
281
               0
282
               0
283
               1
284
               0
285
               0
286
               0
288
               0
340
17
341
0
342
0
343
0
344
0
371
              -2
372
              -2
  0
ENDTAB
  0
TABLE
  2
BLOCK_RECORD
  5
1
100
AcDbSymbolTable
 70
               6
  0
BLOCK_RECORD
  5
A
100
AcDbSymbolTableRecord
100
AcDbBlockTableRecord
  2
*MODEL_SPACE
340
20
  0
BLOCK_RECORD
  5
B
100
AcDbSymbolTableRecord
100
AcDbBlockTableRecord
  2
*PAPER_SPACE
340
21
  0
BLOCK_RECORD
  5
24
100
AcDbSymbolTableRecord
100
AcDbBlockTableRecord
  2
グループ
340
0
102
{BLKREFS
331
DC
102
}
  0
BLOCK_RECORD
  5
25
100
AcDbSymbolTableRecord
100
AcDbBlockTableRecord
  2
グループ-1
340
0
102
{BLKREFS
331
DD
102
}
  0
BLOCK_RECORD
  5
26
100
AcDbSymbolTableRecord
100
AcDbBlockTableRecord
  2
グループ-2
340
0
102
{BLKREFS
331
AA
102
}
  0
BLOCK_RECORD
  5
27
100
AcDbSymbolTableRecord
100
AcDbBlockTableRecord
  2
グループ-3
340
0
102
{BLKREFS
331
AB
102
}
  0
BLOCK_RECORD
  5
28
100
AcDbSymbolTableRecord
100
AcDbBlockTableRecord
  2
グループ-4
340
0
102
{BLKREFS
331
AC
102
}
  0
BLOCK_RECORD
  5
29
100
AcDbSymbolTableRecord
100
AcDbBlockTableRecord
  2
グループ-5
340
0
102
{BLKREFS
331
DE
102
}
  0
ENDTAB
  0
ENDSEC
  0
SECTION
  2
BLOCKS
  0
BLOCK
  5
D
100
AcDbEntity
  8
0
100
AcDbBlockBegin
  2
*MODEL_SPACE
 70
               0
 10
0.0
 20
0.0
 30
0.0
  3
*MODEL_SPACE
  1

  0
ENDBLK
  5
E
100
AcDbEntity
  8
0
100
AcDbBlockEnd
  0
BLOCK
  5
F
100
AcDbEntity
 67
               1
  8
0
100
AcDbBlockBegin
  2
*PAPER_SPACE
 70
               0
 10
0.0
 20
0.0
 30
0.0
  3
*PAPER_SPACE
  1

  0
ENDBLK
  5
10
100
AcDbEntity
 67
               1
  8
0
100
AcDbBlockEnd
  0
BLOCK
  5
3B
100
AcDbEntity
  8
照明コンセント
100
AcDbBlockBegin
  2
グループ
 70
               0
 10
0.0
 20
0.0
 30
0.0
  3
グループ
  1

  0
LINE
  5
3C
100
AcDbEntity
  8
0
370
               5
  6
Continuous
 62
               7
100
AcDbLine
 10
-1361.919620499948
 20
-3507.3000353099574
 30
0.0
 11
-1171.9196204999444
 21
-3507.3000353099574
 31
0.0
  0
LINE
  5
3D
100
AcDbEntity
  8
0
370
               5
  6
Continuous
 62
               7
100
AcDbLine
 10
686.2253313263318
 20
-3508.3114109643161
 30
0.0
 11
876.2253313263318
 21
-3508.3114109643161
 31
0.0
  0
LINE
  5
3E
100
AcDbEntity
  8
0
370
               5
  6
Continuous
 62
               7
100
AcDbLine
 10
-5898.8519396942465
 20
-3508.540461299327
 30
0.0
 11
-5658.8519396942465
 21
-3508.540461299327
 31
0.0
  0
LINE
  5
3F
100
AcDbEntity
  8
0
370
               5
  6
Continuous
 62
               7
100
AcDbLine
 10
5172.9436087378926
 20
-3511.0520579867762
 30
0.0
 11
5412.9436087378926
 21
-3511.0520579867762
 31
0.0
  0
LINE
  5
40
100
AcDbEntity
  8
0
370
               5
  6
Continuous
 62
               7
100
AcDbLine
 10
7655.686406127692
 20
-1959.6932523667763
 30
0.0
 11
7865.686406127692
 21
-1959.6932523667763
 31
0.0
  0
LINE
  5
41
100
AcDbEntity
  8
0
370
               5
  6
Continuous
 62
               7
100
AcDbLine
 10
7655.686406127692
 20
-1959.6932523667763
 30
0.0
 11
7655.686406127692
 21
-1669.6932523667765
 31
0.0
  0
LINE
  5
42
100
AcDbEntity
  8
0
370
               5
  6
Continuous
 62
               7
100
AcDbLine
 10
7865.686406127692
 20
-1959.6932523667763
 30
0.0
 11
7865.686406127692
 21
-1669.6932523667765
 31
0.0
  0
LINE
  5
43
100
AcDbEntity
  8
0
370
               5
  6
Continuous
 62
               7
100
AcDbLine
 10
7655.686406127692
 20
-1669.6932523667765
 30
0.0
 11
7865.686406127692
 21
-1669.6932523667765
 31
0.0
  0
LINE
  5
44
100
AcDbEntity
  8
0
370
               5
  6
Continuous
 62
               7
100
AcDbLine
 10
-8143.2418804891568
 20
-1957.9667762151762
 30
0.0
 11
-8353.2418804891568
 21
-1957.9667762151762
 31
0.0
  0
LINE
  5
45
100
AcDbEntity
  8
0
370
               5
  6
Continuous
 62
               7
100
AcDbLine
 10
-8353.2418804891568
 20
-1957.9667762151762
 30
0.0
 11
-8353.2418804891568
 21
-1667.9667762151762
 31
0.0
  0
LINE
  5
46
100
AcDbEntity
  8
0
370
               5
  6
Continuous
 62
               7
100
AcDbLine
 10
-8353.2418804891568
 20
-1667.9667762151762
 30
0.0
 11
-8143.2418804891568
 21
-1667.9667762151762
 31
0.0
  0
LINE
  5
47
100
AcDbEntity
  8
0
370
               5
  6
Continuous
 62
               7
100
AcDbLine
 10
-8143.2418804891568
 20
-1667.9667762151762
 30
0.0
 11
-8143.2418804891568
 21
-1957.9667762151762
 31
0.0
  0
LINE
  5
48
100
AcDbEntity
  8
0
370
               5
  6
Continuous
 62
               7
100
AcDbLine
 10
-8143.2418804891568
 20
1736.5269994456839
 30
0.0
 11
-8353.2418804891568
 21
1736.5269994456839
 31
0.0
  0
LINE
  5
49
100
AcDbEntity
  8
0
370
               5
  6
Continuous
 62
               7
100
AcDbLine
 10
-8353.2418804891568
 20
1736.5269994456839
 30
0.0
 11
-8353.2418804891568
 21
2026.5269994456839
 31
0.0
  0
LINE
  5
4A
100
AcDbEntity
  8
0
370
               5
  6
Continuous
 62
               7
100
AcDbLine
 10
-8353.2418804891568
 20
2026.5269994456839
 30
0.0
 11
-8143.2418804891568
 21
2026.5269994456839
 31
0.0
  0
LINE
  5
4B
100
AcDbEntity
  8
0
370
               5
  6
Continuous
 62
               7
100
AcDbLine
 10
-8143.2418804891568
 20
2026.5269994456839
 30
0.0
 11
-8143.2418804891568
 21
1736.5269994456839
 31
0.0
  0
LINE
  5
4C
100
AcDbEntity
  8
0
370
               5
  6
Continuous
 62
               7
100
AcDbLine
 10
-8143.2418804891568
 20
3335.7858534024235
 30
0.0
 11
-8353.2418804891568
 21
3335.7858534024235
 31
0.0
  0
LINE
  5
4D
100
AcDbEntity
  8
0
370
               5
  6
Continuous
 62
               7
100
AcDbLine
 10
-8353.2418804891568
 20
3335.7858534024235
 30
0.0
 11
-8353.2418804891568
 21
3625.7858534024235
 31
0.0
  0
LINE
  5
4E
100
AcDbEntity
  8
0
370
               5
  6
Continuous
 62
               7
100
AcDbLine
 10
-8353.2418804891568
 20
3625.7858534024235
 30
0.0
 11
-8143.2418804891568
 21
3625.7858534024235
 31
0.0
  0
LINE
  5
4F
100
AcDbEntity
  8
0
370
               5
  6
Continuous
 62
               7
100
AcDbLine
 10
-8143.2418804891568
 20
3625.7858534024235
 30
0.0
 11
-8143.2418804891568
 21
3335.7858534024235
 31
0.0
  0
LINE
  5
50
100
AcDbEntity
  8
0
370
               5
  6
Continuous
 62
               7
100
AcDbLine
 10
2554.2233267644924
 20
6269.2960269500245
 30
0.0
 11
2554.2233267644924
 21
6059.2960269501245
 31
0.0
  0
LINE
  5
51
100
AcDbEntity
  8
0
370
               5
  6
Continuous
 62
               7
100
AcDbLine
 10
2554.2233267644924
 20
6269.2960269500245
 30
0.0
 11
2794.2233267644824
 21
6269.2960269500245
 31
0.0
  0
LINE
  5
52
100
AcDbEntity
  8
0
370
               5
  6
Continuous
 62
               7
100
AcDbLine
 10
2554.2233267644924
 20
6059.2960269501245
 30
0.0
 11
2794.2233267644824
 21
6059.2960269501245
 31
0.0
  0
LINE
  5
53
100
AcDbEntity
  8
0
370
               5
  6
Continuous
 62
               7
100
AcDbLine
 10
2794.2233267644824
 20
6269.2960269500245
 30
0.0
 11
2794.2233267644824
 21
6059.2960269501245
 31
0.0
  0
LINE
  5
54
100
AcDbEntity
  8
0
370
               5
  6
Continuous
 62
               7
100
AcDbLine
 10
7655.6800149523924
 20
3335.001998726324
 30
0.0
 11
7865.6800149523924
 21
3335.001998726324
 31
0.0
  0
LINE
  5
55
100
AcDbEntity
  8
0
370
               5
  6
Continuous
 62
               7
100
AcDbLine
 10
7655.6800149523924
 20
3335.001998726324
 30
0.0
 11
7655.6800149523924
 21
3625.001998726324
 31
0.0
  0
LINE
  5
56
100
AcDbEntity
  8
0
370
               5
  6
Continuous
 62
               7
100
AcDbLine
 10
7865.6800149523924
 20
3335.001998726324
 30
0.0
 11
7865.6800149523924
 21
3625.001998726324
 31
0.0
  0
LINE
  5
57
100
AcDbEntity
  8
0
370
               5
  6
Continuous
 62
               7
100
AcDbLine
 10
7655.6800149523924
 20
3625.001998726324
 30
0.0
 11
7865.6800149523924
 21
3625.001998726324
 31
0.0
  0
LINE
  5
58
100
AcDbEntity
  8
0
370
               5
  6
Continuous
 62
               7
100
AcDbLine
 10
6414.9003880892924
 20
6085.1697903237246
 30
0.0
 11
6414.9003880892924
 21
6295.1697903237246
 31
0.0
  0
LINE
  5
59
100
AcDbEntity
  8
0
370
               5
  6
Continuous
 62
               7
100
AcDbLine
 10
6414.9003880892924
 20
6085.1697903237246
 30
0.0
 11
6124.9003880892924
 21
6085.1697903237246
 31
0.0
  0
LINE
  5
5A
100
AcDbEntity
  8
0
370
               5
  6
Continuous
 62
               7
100
AcDbLine
 10
6414.9003880892924
 20
6295.1697903237246
 30
0.0
 11
6124.9003880892924
 21
6295.1697903237246
 31
0.0
  0
LINE
  5
5B
100
AcDbEntity
  8
0
370
               5
  6
Continuous
 62
               7
100
AcDbLine
 10
6124.9003880892924
 20
6085.1697903237246
 30
0.0
 11
6124.9003880892924
 21
6295.1697903237246
 31
0.0
  0
LINE
  5
5C
100
AcDbEntity
  8
0
370
               5
  6
Continuous
 62
               7
100
AcDbLine
 10
-3293.9169943800189
 20
6295.1697903237246
 30
0.0
 11
-3293.9169943800189
 21
6085.1697903237246
 31
0.0
  0
LINE
  5
5D
100
AcDbEntity
  8
0
370
               5
  6
Continuous
 62
               7
100
AcDbLine
 10
-3293.9169943800189
 20
6295.1697903237246
 30
0.0
 11
-3053.9169943800189
 21
6295.1697903237246
 31
0.0
  0
LINE
  5
5E
100
AcDbEntity
  8
0
370
               5
  6
Continuous
 62
               7
100
AcDbLine
 10
-3293.9169943800189
 20
6085.1697903237246
 30
0.0
 11
-3053.9169943800189
 21
6085.1697903237246
 31
0.0
  0
LINE
  5
5F
100
AcDbEntity
  8
0
370
               5
  6
Continuous
 62
               7
100
AcDbLine
 10
-3053.9169943800189
 20
6295.1697903237246
 30
0.0
 11
-3053.9169943800189
 21
6085.1697903237246
 31
0.0
  0
LINE
  5
60
100
AcDbEntity
  8
0
370
               5
  6
Continuous
 62
               7
100
AcDbLine
 10
-6612.9788457302784
 20
6085.1697903237246
 30
0.0
 11
-6612.9788457302784
 21
6295.1697903237246
 31
0.0
  0
LINE
  5
61
100
AcDbEntity
  8
0
370
               5
  6
Continuous
 62
               7
100
AcDbLine
 10
-6612.9788457302784
 20
6085.1697903237246
 30
0.0
 11
-6902.9788457302675
 21
6085.1697903237246
 31
0.0
  0
LINE
  5
62
100
AcDbEntity
  8
0
370
               5
  6
Continuous
 62
               7
100
AcDbLine
 10
-6612.9788457302784
 20
6295.1697903237246
 30
0.0
 11
-6902.9788457302675
 21
6295.1697903237246
 31
0.0
  0
LINE
  5
63
100
AcDbEntity
  8
0
370
               5
  6
Continuous
 62
               7
100
AcDbLine
 10
-6902.9788457302675
 20
6085.1697903237246
 30
0.0
 11
-6902.9788457302675
 21
6295.1697903237246
 31
0.0
  0
LINE
  5
64
100
AcDbEntity
  8
0
370
               5
  6
Continuous
 62
               7
100
AcDbLine
 10
7655.6800149523924
 20
1736.8019634613838
 30
0.0
 11
7865.6800149523924
 21
1736.8019634613838
 31
0.0
  0
LINE
  5
65
100
AcDbEntity
  8
0
370
               5
  6
Continuous
 62
               7
100
AcDbLine
 10
7655.6800149523924
 20
1736.8019634613838
 30
0.0
 11
7655.6800149523924
 21
2026.8019634613938
 31
0.0
  0
LINE
  5
66
100
AcDbEntity
  8
0
370
               5
  6
Continuous
 62
               7
100
AcDbLine
 10
7865.6800149523924
 20
1736.8019634613838
 30
0.0
 11
7865.6800149523924
 21
2026.8019634613938
 31
0.0
  0
LINE
  5
67
100
AcDbEntity
  8
0
370
               5
  6
Continuous
 62
               7
100
AcDbLine
 10
7655.6800149523924
 20
2026.8019634613938
 30
0.0
 11
7865.6800149523924
 21
2026.8019634613938
 31
0.0
  0
ENDBLK
  5
68
100
AcDbEntity
  8
照明コンセント
100
AcDbBlockEnd
  0
BLOCK
  5
69
100
AcDbEntity
  8
照明コンセント
100
AcDbBlockBegin
  2
グループ-1
 70
               0
 10
0.0
 20
0.0
 30
0.0
  3
グループ-1
  1

  0
LINE
  5
6A
100
AcDbEntity
  8
0
370
               5
  6
Continuous
 62
               7
100
AcDbLine
 10
-1171.9095612948558
 20
-3717.2302096762719
 30
0.0
 11
-1361.9095612948595
 21
-3717.2302096762719
 31
0.0
  0
LINE
  5
6B
100
AcDbEntity
  8
0
370
               5
  6
Continuous
 62
               7
100
AcDbLine
 10
-1361.9095612948595
 20
-3717.2302096762719
 30
0.0
 11
-1361.9095612948595
 21
-3507.2302096762742
 31
0.0
  0
LINE
  5
6C
100
AcDbEntity
  8
0
370
               5
  6
Continuous
 62
               7
100
AcDbLine
 10
-1171.9095612948558
 20
-3717.2302096762719
 30
0.0
 11
-1171.9095612948558
 21
-3507.2302096762742
 31
0.0
  0
LINE
  5
6D
100
AcDbEntity
  8
0
370
               5
  6
Continuous
 62
               7
100
AcDbLine
 10
876.23539053142076
 20
-3718.2415853306329
 30
0.0
 11
686.23539053142076
 21
-3718.2415853306329
 31
0.0
  0
LINE
  5
6E
100
AcDbEntity
  8
0
370
               5
  6
Continuous
 62
               7
100
AcDbLine
 10
686.23539053142076
 20
-3718.2415853306329
 30
0.0
 11
686.23539053142076
 21
-3508.2415853306329
 31
0.0
  0
LINE
  5
6F
100
AcDbEntity
  8
0
370
               5
  6
Continuous
 62
               7
100
AcDbLine
 10
876.23539053142076
 20
-3718.2415853306329
 30
0.0
 11
876.23539053142076
 21
-3508.2415853306329
 31
0.0
  0
LINE
  5
70
100
AcDbEntity
  8
0
370
               5
  6
Continuous
 62
               7
100
AcDbLine
 10
-5898.841880489158
 20
-3718.470635665642
 30
0.0
 11
-5658.841880489158
 21
-3718.470635665642
 31
0.0
  0
LINE
  5
71
100
AcDbEntity
  8
0
370
               5
  6
Continuous
 62
               7
100
AcDbLine
 10
-5898.841880489158
 20
-3718.470635665642
 30
0.0
 11
-5898.841880489158
 21
-3508.4706356656438
 31
0.0
  0
LINE
  5
72
100
AcDbEntity
  8
0
370
               5
  6
Continuous
 62
               7
100
AcDbLine
 10
-5658.841880489158
 20
-3718.470635665642
 30
0.0
 11
-5658.841880489158
 21
-3508.4706356656438
 31
0.0
  0
LINE
  5
73
100
AcDbEntity
  8
0
370
               5
  6
Continuous
 62
               7
100
AcDbLine
 10
5172.9536679429812
 20
-3720.982232353093
 30
0.0
 11
5412.9536679429812
 21
-3720.982232353093
 31
0.0
  0
LINE
  5
74
100
AcDbEntity
  8
0
370
               5
  6
Continuous
 62
               7
100
AcDbLine
 10
5172.9536679429812
 20
-3720.982232353093
 30
0.0
 11
5172.9536679429812
 21
-3510.982232353093
 31
0.0
  0
LINE
  5
75
100
AcDbEntity
  8
0
370
               5
  6
Continuous
 62
               7
100
AcDbLine
 10
5412.9536679429812
 20
-3720.982232353093
 30
0.0
 11
5412.9536679429812
 21
-3510.982232353093
 31
0.0
  0
ENDBLK
  5
76
100
AcDbEntity
  8
照明コンセント
100
AcDbBlockEnd
  0
BLOCK
  5
77
100
AcDbEntity
  8
音響コンセント
100
AcDbBlockBegin
  2
グループ-2
 70
               0
 10
0.0
 20
0.0
 30
0.0
  3
グループ-2
  1

  0
LINE
  5
78
100
AcDbEntity
  8
0
370
               5
  6
Continuous
 62
               7
100
AcDbLine
 10
-5056.4649517873268
 20
-2424.0426861153951
 30
0.0
 11
-5256.4649517873177
 21
-2424.0426861153951
 31
0.0
  0
LINE
  5
79
100
AcDbEntity
  8
0
370
               5
  6
Continuous
 62
               7
100
AcDbLine
 10
-5256.4649517873177
 20
-2424.0426861153951
 30
0.0
 11
-5256.4649517873177
 21
-2254.0426861153837
 31
0.0
  0
LINE
  5
7A
100
AcDbEntity
  8
0
370
               5
  6
Continuous
 62
               7
100
AcDbLine
 10
-5056.4649517873268
 20
-2424.0426861153951
 30
0.0
 11
-5056.4649517873268
 21
-2254.0426861153837
 31
0.0
  0
LINE
  5
7B
100
AcDbEntity
  8
0
370
               5
  6
Continuous
 62
               7
100
AcDbLine
 10
-5256.4649517873177
 20
-2254.0426861153837
 30
0.0
 11
-5056.4649517873268
 21
-2254.0426861153837
 31
0.0
  0
ENDBLK
  5
7C
100
AcDbEntity
  8
音響コンセント
100
AcDbBlockEnd
  0
BLOCK
  5
7D
100
AcDbEntity
  8
音響コンセント
100
AcDbBlockBegin
  2
グループ-3
 70
               0
 10
0.0
 20
0.0
 30
0.0
  3
グループ-3
  1

  0
LINE
  5
7E
100
AcDbEntity
  8
0
370
               5
  6
Continuous
 62
               7
100
AcDbLine
 10
-5699.3418804891671
 20
-308.31921867086567
 30
0.0
 11
-5899.341880489158
 21
-308.31921867086567
 31
0.0
  0
LINE
  5
7F
100
AcDbEntity
  8
0
370
               5
  6
Continuous
 62
               7
100
AcDbLine
 10
-5899.341880489158
 20
-308.31921867086567
 30
0.0
 11
-5899.341880489158
 21
-138.31921867085475
 31
0.0
  0
LINE
  5
80
100
AcDbEntity
  8
0
370
               5
  6
Continuous
 62
               7
100
AcDbLine
 10
-5699.3418804891671
 20
-308.31921867086567
 30
0.0
 11
-5699.3418804891671
 21
-138.31921867085475
 31
0.0
  0
LINE
  5
81
100
AcDbEntity
  8
0
370
               5
  6
Continuous
 62
               7
100
AcDbLine
 10
-5899.341880489158
 20
-138.31921867085475
 30
0.0
 11
-5699.3418804891671
 21
-138.31921867085475
 31
0.0
  0
ENDBLK
  5
82
100
AcDbEntity
  8
音響コンセント
100
AcDbBlockEnd
  0
BLOCK
  5
83
100
AcDbEntity
  8
音響コンセント
100
AcDbBlockBegin
  2
グループ-4
 70
               0
 10
0.0
 20
0.0
 30
0.0
  3
グループ-4
  1

  0
LINE
  5
84
100
AcDbEntity
  8
0
370
               5
  6
Continuous
 62
               7
100
AcDbLine
 10
5386.3388489067465
 20
-305.61921867086585
 30
0.0
 11
5186.3388489067565
 21
-305.61921867086585
 31
0.0
  0
LINE
  5
85
100
AcDbEntity
  8
0
370
               5
  6
Continuous
 62
               7
100
AcDbLine
 10
5186.3388489067565
 20
-305.61921867086585
 30
0.0
 11
5186.3388489067565
 21
-135.61921867085493
 31
0.0
  0
LINE
  5
86
100
AcDbEntity
  8
0
370
               5
  6
Continuous
 62
               7
100
AcDbLine
 10
5386.3388489067465
 20
-305.61921867086585
 30
0.0
 11
5386.3388489067465
 21
-135.61921867085493
 31
0.0
  0
LINE
  5
87
100
AcDbEntity
  8
0
370
               5
  6
Continuous
 62
               7
100
AcDbLine
 10
5186.3388489067565
 20
-135.61921867085493
 30
0.0
 11
5386.3388489067465
 21
-135.61921867085493
 31
0.0
  0
ENDBLK
  5
88
100
AcDbEntity
  8
音響コンセント
100
AcDbBlockEnd
  0
BLOCK
  5
89
100
AcDbEntity
  8
音響コンセント
100
AcDbBlockBegin
  2
グループ-5
 70
               0
 10
0.0
 20
0.0
 30
0.0
  3
グループ-5
  1

  0
LINE
  5
8A
100
AcDbEntity
  8
0
370
               5
  6
Continuous
 62
               7
100
AcDbLine
 10
-174.02075773888646
 20
-2427.4173424649262
 30
0.0
 11
-174.02075773888646
 21
-2257.4173424649239
 31
0.0
  0
LINE
  5
8B
100
AcDbEntity
  8
0
370
               5
  6
Continuous
 62
               7
100
AcDbLine
 10
-174.02075773888646
 20
-2427.4173424649262
 30
0.0
 11
25.979242261124455
 21
-2427.4173424649262
 31
0.0
  0
LINE
  5
8C
100
AcDbEntity
  8
0
370
               5
  6
Continuous
 62
               7
100
AcDbLine
 10
-174.02075773888646
 20
-2257.4173424649239
 30
0.0
 11
25.979242261124455
 21
-2257.4173424649239
 31
0.0
  0
LINE
  5
8D
100
AcDbEntity
  8
0
370
               5
  6
Continuous
 62
               7
100
AcDbLine
 10
25.979242261124455
 20
-2257.4173424649239
 30
0.0
 11
25.979242261124455
 21
-2427.4173424649262
 31
0.0
  0
LINE
  5
8E
100
AcDbEntity
  8
0
370
               5
  6
Continuous
 62
               7
100
AcDbLine
 10
-314.90540842652626
 20
-2424.7548021586749
 30
0.0
 11
-514.90540842652626
 21
-2424.7548021586749
 31
0.0
  0
LINE
  5
8F
100
AcDbEntity
  8
0
370
               5
  6
Continuous
 62
               7
100
AcDbLine
 10
-514.90540842652626
 20
-2424.7548021586749
 30
0.0
 11
-514.90540842652626
 21
-2254.7548021586758
 31
0.0
  0
LINE
  5
90
100
AcDbEntity
  8
0
370
               5
  6
Continuous
 62
               7
100
AcDbLine
 10
-314.90540842652626
 20
-2424.7548021586749
 30
0.0
 11
-314.90540842652626
 21
-2254.7548021586758
 31
0.0
  0
LINE
  5
91
100
AcDbEntity
  8
0
370
               5
  6
Continuous
 62
               7
100
AcDbLine
 10
-514.90540842652626
 20
-2254.7548021586758
 30
0.0
 11
-314.90540842652626
 21
-2254.7548021586758
 31
0.0
  0
LINE
  5
92
100
AcDbEntity
  8
0
370
               5
  6
Continuous
 62
               7
100
AcDbLine
 10
4770.9038220486527
 20
-2426.8007536748551
 30
0.0
 11
4570.9038220486527
 21
-2426.8007536748551
 31
0.0
  0
LINE
  5
93
100
AcDbEntity
  8
0
370
               5
  6
Continuous
 62
               7
100
AcDbLine
 10
4570.9038220486527
 20
-2426.8007536748551
 30
0.0
 11
4570.9038220486527
 21
-2256.8007536748551
 31
0.0
  0
LINE
  5
94
100
AcDbEntity
  8
0
370
               5
  6
Continuous
 62
               7
100
AcDbLine
 10
4770.9038220486527
 20
-2426.8007536748551
 30
0.0
 11
4770.9038220486527
 21
-2256.8007536748551
 31
0.0
  0
LINE
  5
95
100
AcDbEntity
  8
0
370
               5
  6
Continuous
 62
               7
100
AcDbLine
 10
4570.9038220486527
 20
-2256.8007536748551
 30
0.0
 11
4770.9038220486527
 21
-2256.8007536748551
 31
0.0
  0
LINE
  5
96
100
AcDbEntity
  8
0
370
               5
  6
Continuous
 62
               7
100
AcDbLine
 10
-208.84753487605849
 20
3308.1290667401254
 30
0.0
 11
-8.8475348760475754
 21
3308.1290667401254
 31
0.0
  0
LINE
  5
97
100
AcDbEntity
  8
0
370
               5
  6
Continuous
 62
               7
100
AcDbLine
 10
-208.84753487605849
 20
3308.1290667401254
 30
0.0
 11
-208.84753487605849
 21
3478.1290667401254
 31
0.0
  0
LINE
  5
98
100
AcDbEntity
  8
0
370
               5
  6
Continuous
 62
               7
100
AcDbLine
 10
-8.8475348760475754
 20
3308.1290667401254
 30
0.0
 11
-8.8475348760475754
 21
3478.1290667401254
 31
0.0
  0
LINE
  5
99
100
AcDbEntity
  8
0
370
               5
  6
Continuous
 62
               7
100
AcDbLine
 10
-208.84753487605849
 20
3478.1290667401254
 30
0.0
 11
-8.8475348760475754
 21
3478.1290667401254
 31
0.0
  0
LINE
  5
9A
100
AcDbEntity
  8
0
370
               5
  6
Continuous
 62
               7
100
AcDbLine
 10
4903.4573870109534
 20
3304.6909117619252
 30
0.0
 11
5103.4573870109534
 21
3304.6909117619252
 31
0.0
  0
LINE
  5
9B
100
AcDbEntity
  8
0
370
               5
  6
Continuous
 62
               7
100
AcDbLine
 10
4903.4573870109534
 20
3304.6909117619252
 30
0.0
 11
4903.4573870109534
 21
3474.6909117619252
 31
0.0
  0
LINE
  5
9C
100
AcDbEntity
  8
0
370
               5
  6
Continuous
 62
               7
100
AcDbLine
 10
5103.4573870109534
 20
3304.6909117619252
 30
0.0
 11
5103.4573870109534
 21
3474.6909117619252
 31
0.0
  0
LINE
  5
9D
100
AcDbEntity
  8
0
370
               5
  6
Continuous
 62
               7
100
AcDbLine
 10
4903.4573870109534
 20
3474.6909117619252
 30
0.0
 11
5103.4573870109534
 21
3474.6909117619252
 31
0.0
  0
LINE
  5
9E
100
AcDbEntity
  8
0
370
               5
  6
Continuous
 62
               7
100
AcDbLine
 10
-5400.3239332298681
 20
3304.6909117619252
 30
0.0
 11
-5600.3239332298681
 21
3304.6909117619252
 31
0.0
  0
LINE
  5
9F
100
AcDbEntity
  8
0
370
               5
  6
Continuous
 62
               7
100
AcDbLine
 10
-5600.3239332298681
 20
3304.6909117619252
 30
0.0
 11
-5600.3239332298681
 21
3474.6909117619252
 31
0.0
  0
LINE
  5
A0
100
AcDbEntity
  8
0
370
               5
  6
Continuous
 62
               7
100
AcDbLine
 10
-5400.3239332298681
 20
3304.6909117619252
 30
0.0
 11
-5400.3239332298681
 21
3474.6909117619252
 31
0.0
  0
LINE
  5
A1
100
AcDbEntity
  8
0
370
               5
  6
Continuous
 62
               7
100
AcDbLine
 10
-5600.3239332298681
 20
3474.6909117619252
 30
0.0
 11
-5400.3239332298681
 21
3474.6909117619252
 31
0.0
  0
LINE
  5
A2
100
AcDbEntity
  8
0
370
               5
  6
Continuous
 62
               7
100
AcDbLine
 10
-5368.1633621761275
 20
4306.1607797597253
 30
0.0
 11
-5568.1633621761366
 21
4306.1607797597253
 31
0.0
  0
LINE
  5
A3
100
AcDbEntity
  8
0
370
               5
  6
Continuous
 62
               7
100
AcDbLine
 10
-5568.1633621761366
 20
4306.1607797597253
 30
0.0
 11
-5568.1633621761366
 21
4476.1607797597253
 31
0.0
  0
LINE
  5
A4
100
AcDbEntity
  8
0
370
               5
  6
Continuous
 62
               7
100
AcDbLine
 10
-5368.1633621761275
 20
4306.1607797597253
 30
0.0
 11
-5368.1633621761275
 21
4476.1607797597253
 31
0.0
  0
LINE
  5
A5
100
AcDbEntity
  8
0
370
               5
  6
Continuous
 62
               7
100
AcDbLine
 10
-5568.1633621761366
 20
4476.1607797597253
 30
0.0
 11
-5368.1633621761275
 21
4476.1607797597253
 31
0.0
  0
LINE
  5
A6
100
AcDbEntity
  8
0
370
               5
  6
Continuous
 62
               7
100
AcDbLine
 10
5070.4162010310529
 20
4309.8697903237253
 30
0.0
 11
4870.4162010310529
 21
4309.8697903237253
 31
0.0
  0
LINE
  5
A7
100
AcDbEntity
  8
0
370
               5
  6
Continuous
 62
               7
100
AcDbLine
 10
4870.4162010310529
 20
4309.8697903237253
 30
0.0
 11
4870.4162010310529
 21
4479.8697903237253
 31
0.0
  0
LINE
  5
A8
100
AcDbEntity
  8
0
370
               5
  6
Continuous
 62
               7
100
AcDbLine
 10
5070.4162010310529
 20
4309.8697903237253
 30
0.0
 11
5070.4162010310529
 21
4479.8697903237253
 31
0.0
  0
LINE
  5
A9
100
AcDbEntity
  8
0
370
               5
  6
Continuous
 62
               7
100
AcDbLine
 10
4870.4162010310529
 20
4479.8697903237253
 30
0.0
 11
5070.4162010310529
 21
4479.8697903237253
 31
0.0
  0
INSERT
  5
AA
100
AcDbEntity
  8
0
 62
               7
100
AcDbBlockReference
  2
グループ-2
 10
0.0
 20
0.0
 30
0.0
  0
INSERT
  5
AB
100
AcDbEntity
  8
0
 62
               7
100
AcDbBlockReference
  2
グループ-3
 10
0.0
 20
0.0
 30
0.0
  0
INSERT
  5
AC
100
AcDbEntity
  8
0
 62
               7
100
AcDbBlockReference
  2
グループ-4
 10
0.0
 20
0.0
 30
0.0
  0
ENDBLK
  5
AD
100
AcDbEntity
  8
音響コンセント
100
AcDbBlockEnd
  0
ENDSEC
  0
SECTION
  2
ENTITIES
  0
LINE
  5
AE
100
AcDbEntity
  8
間線
370
               5
  6
STYLE_01
 62
               7
100
AcDbLine
 10
0.0174061111929404
 20
-900.50000000005866
 30
0.0
 11
0.0174061111929404
 21
11799.4964012087
 31
0.0
  0
LINE
  5
AF
100
AcDbEntity
  8
間線
370
               5
  6
STYLE_01
 62
               7
100
AcDbLine
 10
-1799.4999999999827
 20
-899.96956482399764
 30
0.0
 11
-1792.8868972784812
 21
11799.4964012087
 31
0.0
  0
LINE
  5
B0
100
AcDbEntity
  8
間線
370
               5
  6
STYLE_01
 62
               7
100
AcDbLine
 10
-3599.4999999999973
 20
-899.96956482399764
 30
0.0
 11
-3599.4999999999973
 21
11799.5
 31
0.0
  0
LINE
  5
B1
100
AcDbEntity
  8
間線
370
               5
  6
STYLE_01
 62
               7
100
AcDbLine
 10
-5399.4999999999973
 20
-899.96956482399764
 30
0.0
 11
-5399.4999999999973
 21
11799.5
 31
0.0
  0
LINE
  5
B2
100
AcDbEntity
  8
間線
370
               5
  6
STYLE_01
 62
               7
100
AcDbLine
 10
-7199.8223202951458
 20
-20.632881952378739
 30
0.0
 11
-7199.8223202951458
 21
11799.5
 31
0.0
  0
LINE
  5
B3
100
AcDbEntity
  8
間線
370
               5
  6
STYLE_01
 62
               7
100
AcDbLine
 10
-8999.4999999999964
 20
265.71518387632432
 30
0.0
 11
-8999.4999999999964
 21
11097.039829218102
 31
0.0
  0
LINE
  5
B4
100
AcDbEntity
  8
間線
370
               5
  6
STYLE_01
 62
               7
100
AcDbLine
 10
-10799.499999999996
 20
11100.030435176002
 30
0.0
 11
-10799.499999999996
 21
0.0304351760023565
 31
0.0
  0
LINE
  5
B5
100
AcDbEntity
  8
間線
370
               5
  6
STYLE_01
 62
               7
100
AcDbLine
 10
1800.5000000000027
 20
-899.96956482399764
 30
0.0
 11
1800.5000000000027
 21
11399.5
 31
0.0
  0
LINE
  5
B6
100
AcDbEntity
  8
間線
370
               5
  6
STYLE_01
 62
               7
100
AcDbLine
 10
3600.5000000000027
 20
-899.96956482399764
 30
0.0
 11
3600.5000000000027
 21
11799.4964012087
 31
0.0
  0
LINE
  5
B7
100
AcDbEntity
  8
間線
370
               5
  6
STYLE_01
 62
               7
100
AcDbLine
 10
5400.5000000000027
 20
-899.96956482399764
 30
0.0
 11
5400.5000000000027
 21
11799.4964012087
 31
0.0
  0
LINE
  5
B8
100
AcDbEntity
  8
間線
370
               5
  6
STYLE_01
 62
               7
100
AcDbLine
 10
7200.5000000000027
 20
0.0304351760023565
 30
0.0
 11
7200.5000000000027
 21
11799.4964012087
 31
0.0
  0
LINE
  5
B9
100
AcDbEntity
  8
間線
370
               5
  6
STYLE_01
 62
               7
100
AcDbLine
 10
9000.5000000000036
 20
269.30823644357224
 30
0.0
 11
9000.5000000000036
 21
11100.030435176002
 31
0.0
  0
LINE
  5
BA
100
AcDbEntity
  8
間線
370
               5
  6
STYLE_01
 62
               7
100
AcDbLine
 10
10800.500000000004
 20
0.0304351760023565
 30
0.0
 11
10800.500000000004
 21
11100.030435176002
 31
0.0
  0
LINE
  5
BB
100
AcDbEntity
  8
間線
370
               5
  6
STYLE_01
 62
               7
100
AcDbLine
 10
12600.500000000004
 20
11100.030435176002
 30
0.0
 11
12600.500000000004
 21
0.0304351760023565
 31
0.0
  0
LINE
  5
BC
100
AcDbEntity
  8
間線
370
               5
  6
STYLE_01
 62
               7
100
AcDbLine
 10
14400.500000000004
 20
0.0304351760023565
 30
0.0
 11
14400.500000000004
 21
11100.030435176002
 31
0.0
  0
LINE
  5
BD
100
AcDbEntity
  8
間線
370
               5
  6
STYLE_01
 62
               7
100
AcDbLine
 10
-10799.499999999996
 20
10800.030435176002
 30
0.0
 11
15102.704288616504
 21
10800.030435176002
 31
0.0
  0
LINE
  5
BE
100
AcDbEntity
  8
間線
370
               5
  6
STYLE_01
 62
               7
100
AcDbLine
 10
15104.872453039603
 20
9000.0304351759842
 30
0.0
 11
-10799.499999999996
 21
9000.0304351759842
 31
0.0
  0
LINE
  5
BF
100
AcDbEntity
  8
間線
370
               5
  6
STYLE_01
 62
               7
100
AcDbLine
 10
-10799.499999999996
 20
7200.0304351759823
 30
0.0
 11
15085.975278417904
 21
7200.0304351759823
 31
0.0
  0
LINE
  5
C0
100
AcDbEntity
  8
間線
370
               5
  6
STYLE_01
 62
               7
100
AcDbLine
 10
15098.272549616104
 20
5400.0304351759823
 30
0.0
 11
-10799.499999999996
 21
5400.0304351759823
 31
0.0
  0
LINE
  5
C1
100
AcDbEntity
  8
間線
370
               5
  6
STYLE_01
 62
               7
100
AcDbLine
 10
-10799.499999999996
 20
3600.0304351760024
 30
0.0
 11
15098.272549616104
 21
3600.0304351760024
 31
0.0
  0
LINE
  5
C2
100
AcDbEntity
  8
間線
370
               5
  6
STYLE_01
 62
               7
100
AcDbLine
 10
15100.017406111194
 20
1800.0304351760024
 30
0.0
 11
-10799.499999999996
 21
1800.0304351760024
 31
0.0
  0
LINE
  5
C3
100
AcDbEntity
  8
間線
370
               5
  6
STYLE_01
 62
               7
100
AcDbLine
 10
-7199.5
 20
0.0
 30
0.0
 11
7200.4999999999854
 21
0.0
 31
0.0
  0
LINE
  5
C4
100
AcDbEntity
  8
反響版
370
               5
  6
STYLE_07
 62
               7
100
AcDbLine
 10
-0.0323369921193262
 20
7952.6818015913996
 30
0.0
 11
5999.9676630078802
 21
7952.6818015913996
 31
0.0
  0
LINE
  5
C5
100
AcDbEntity
  8
反響版
370
               5
  6
STYLE_07
 62
               7
100
AcDbLine
 10
-0.0323369921193262
 20
8455.8999999999996
 30
0.0
 11
-6000.0323369921198
 21
8455.8999999999996
 31
0.0
  0
LINE
  5
C6
100
AcDbEntity
  8
反響版
370
               5
  6
STYLE_07
 62
               7
100
AcDbLine
 10
5999.9676630078802
 20
8455.8999999999996
 30
0.0
 11
5999.9676630078802
 21
7952.6818015913996
 31
0.0
  0
LINE
  5
C7
100
AcDbEntity
  8
反響版
370
               5
  6
STYLE_07
 62
               7
100
AcDbLine
 10
-6000.0323369921198
 20
8455.8999999999996
 30
0.0
 11
-6000.0323369921198
 21
7952.6818015913996
 31
0.0
  0
LINE
  5
C8
100
AcDbEntity
  8
反響版
370
               5
  6
STYLE_07
 62
               7
100
AcDbLine
 10
-7348.8430171425489
 20
453.48376293330148
 30
0.0
 11
-7148.8430171425489
 21
453.48376293330148
 31
0.0
  0
LINE
  5
C9
100
AcDbEntity
  8
反響版
370
               5
  6
STYLE_07
 62
               7
100
AcDbLine
 10
-7147.4305792543009
 20
466.17658784883815
 30
0.0
 11
-6398.1751407744987
 21
3283.6456496248893
 31
0.0
  0
LINE
  5
CA
100
AcDbEntity
  8
反響版
370
               5
  6
STYLE_07
 62
               7
100
AcDbLine
 10
-6397.2010083722098
 20
3302.7505208985294
 30
0.0
 11
-6397.2010083722098
 21
3802.7505208985294
 31
0.0
  0
LINE
  5
CB
100
AcDbEntity
  8
反響版
370
               5
  6
STYLE_07
 62
               7
100
AcDbLine
 10
-6397.2010083722098
 20
3809.0385557536092
 30
0.0
 11
-5916.3520746546901
 21
6007.9710101595992
 31
0.0
  0
LINE
  5
CC
100
AcDbEntity
  8
反響版
370
               5
  6
STYLE_07
 62
               7
100
AcDbLine
 10
-5916.3520746546901
 20
6007.9710101595992
 30
0.0
 11
-5916.3520746546901
 21
6507.9710101595992
 31
0.0
  0
LINE
  5
CD
100
AcDbEntity
  8
反響版
370
               5
  6
STYLE_07
 62
               7
100
AcDbLine
 10
-5562.3359319248111
 20
7518.2088854975991
 30
0.0
 11
-6073.7340773573987
 21
7521.1225706478981
 31
0.0
  0
LINE
  5
CE
100
AcDbEntity
  8
反響版
370
               5
  6
STYLE_07
 62
               7
100
AcDbLine
 10
-6056.0697292046707
 20
7531.6971509277992
 30
0.0
 11
-7365.4000000000005
 21
447.24946434350932
 31
0.0
  0
LINE
  5
CF
100
AcDbEntity
  8
反響版
370
               5
  6
STYLE_07
 62
               7
100
AcDbLine
 10
-6985.8354996468906
 20
2224.7022637058094
 30
0.0
 11
-6710.485115079081
 21
2224.7022637058094
 31
0.0
  0
LINE
  5
D0
100
AcDbEntity
  8
反響版
370
               5
  6
STYLE_07
 62
               7
100
AcDbLine
 10
-5562.3359319248111
 20
7518.2088854975991
 30
0.0
 11
-5916.3520746546901
 21
6507.9710101595992
 31
0.0
  0
LINE
  5
D1
100
AcDbEntity
  8
反響版
370
               5
  6
STYLE_07
 62
               7
100
AcDbLine
 10
7351.7788428174799
 20
461.18407544418051
 30
0.0
 11
7151.7788428174799
 21
461.18407544418051
 31
0.0
  0
LINE
  5
D2
100
AcDbEntity
  8
反響版
370
               5
  6
STYLE_07
 62
               7
100
AcDbLine
 10
7150.366404929181
 20
473.87690035971946
 30
0.0
 11
6401.1109664493806
 21
3291.3459621357688
 31
0.0
  0
LINE
  5
D3
100
AcDbEntity
  8
反響版
370
               5
  6
STYLE_07
 62
               7
100
AcDbLine
 10
6400.1368340471809
 20
3310.4508334093989
 30
0.0
 11
6400.1368340471809
 21
3810.4508334093989
 31
0.0
  0
LINE
  5
D4
100
AcDbEntity
  8
反響版
370
               5
  6
STYLE_07
 62
               7
100
AcDbLine
 10
6400.1368340471809
 20
3816.7388682644796
 30
0.0
 11
5919.2879003295811
 21
6015.6713226704996
 31
0.0
  0
LINE
  5
D5
100
AcDbEntity
  8
反響版
370
               5
  6
STYLE_07
 62
               7
100
AcDbLine
 10
5919.2879003295811
 20
6015.6713226704996
 30
0.0
 11
5919.2879003295811
 21
6515.6713226704996
 31
0.0
  0
LINE
  5
D6
100
AcDbEntity
  8
反響版
370
               5
  6
STYLE_07
 62
               7
100
AcDbLine
 10
5565.2717575997804
 20
7525.9091980084995
 30
0.0
 11
6076.6699030322807
 21
7528.8228831587985
 31
0.0
  0
LINE
  5
D7
100
AcDbEntity
  8
反響版
370
               5
  6
STYLE_07
 62
               7
100
AcDbLine
 10
6059.0055548795799
 20
7539.3974634386996
 30
0.0
 11
7368.3358256749807
 21
454.94977685438926
 31
0.0
  0
LINE
  5
D8
100
AcDbEntity
  8
反響版
370
               5
  6
STYLE_07
 62
               7
100
AcDbLine
 10
6988.7713253217798
 20
2232.4025762166893
 30
0.0
 11
6713.4209407539811
 21
2232.4025762166893
 31
0.0
  0
LINE
  5
D9
100
AcDbEntity
  8
反響版
370
               5
  6
STYLE_07
 62
               7
100
AcDbLine
 10
5565.2717575997804
 20
7525.9091980084995
 30
0.0
 11
5919.2879003295811
 21
6515.6713226704996
 31
0.0
  0
LINE
  5
DA
100
AcDbEntity
  8
反響版
370
               5
  6
STYLE_07
 62
               7
100
AcDbLine
 10
0.3521768757674408
 20
7945.2895338891176
 30
0.0
 11
-5999.6478231242281
 21
7945.2895338891176
 31
0.0
  0
LINE
  5
DB
100
AcDbEntity
  8
反響版
370
               5
  6
STYLE_07
 62
               7
100
AcDbLine
 10
6.9014512505118546
 20
8450.0053507631619
 30
0.0
 11
6006.9014512505146
 21
8450.0053507631619
 31
0.0
  0
INSERT
  5
DC
100
AcDbEntity
  8
照明コンセント
 62
               7
100
AcDbBlockReference
  2
グループ
 10
244.34188048915803
 20
3138.6302096762747
 30
0.0
  0
INSERT
  5
DD
100
AcDbEntity
  8
照明コンセント
 62
               7
100
AcDbBlockReference
  2
グループ-1
 10
244.34188048915803
 20
3138.6302096762747
 30
0.0
  0
INSERT
  5
DE
100
AcDbEntity
  8
音響コンセント
 62
               7
100
AcDbBlockReference
  2
グループ-5
 10
244.34188048915803
 20
3138.6302096762747
 30
0.0
  0
LINE
  5
DF
100
AcDbEntity
  8
平面図
370
               5
  6
Continuous
 62
               7
100
AcDbLine
 10
-14637.641681458499
 20
6298.4775153587798
 30
0.0
 11
-14637.641681458499
 21
5598.4775153587798
 31
0.0
  0
LINE
  5
E0
100
AcDbEntity
  8
平面図
370
               5
  6
Continuous
 62
               7
100
AcDbLine
 10
14626.0402844946
 20
14340.5911867002
 30
0.0
 11
14626.0402844946
 21
15930.5911867002
 31
0.0
  0
ARC
  5
E1
100
AcDbEntity
  8
平面図
370
               5
  6
Continuous
 62
               7
100
AcDbCircle
 10
9453.8051498419009
 20
14340.539687673598
 30
0.0
 40
1125.1698637862901
100
AcDbArc
 50
0.0
 51
89.321041094438669
  0
LINE
  5
E2
100
AcDbEntity
  8
平面図
370
               5
  6
STYLE_01
 62
               7
100
AcDbLine
 10
15446.699616326099
 20
-4605.76428457375
 30
0.0
 11
15446.699616326099
 21
-5385.6754077813903
 31
0.0
  0
ARC
  5
E3
100
AcDbEntity
  8
平面図
370
               5
  6
Continuous
 62
               7
100
AcDbCircle
 10
15446.699616326099
 20
-5385.6754077813903
 30
0.0
 40
782.0
100
AcDbArc
 50
0.0
 51
89.658068247018093
  0
LINE
  5
E4
100
AcDbEntity
  8
平面図
370
               5
  6
Continuous
 62
               7
100
AcDbLine
 10
-12239.7941803125
 20
-6533.4654486794707
 30
0.0
 11
-11389.7941803125
 21
-6533.4654486794707
 31
0.0
  0
LINE
  5
E5
100
AcDbEntity
  8
平面図
370
               5
  6
STYLE_01
 62
               7
100
AcDbLine
 10
-12236.642222324797
 20
-4865.59443605668
 30
0.0
 11
-12236.642222324797
 21
-6565.59443605668
 31
0.0
  0
LINE
  5
E6
100
AcDbEntity
  8
平面図
370
               5
  6
Continuous
 62
               7
100
AcDbLine
 10
-12236.642222324797
 20
-4865.59443605668
 30
0.0
 11
-11386.642222324797
 21
-4865.59443605668
 31
0.0
  0
ARC
  5
E7
100
AcDbEntity
  8
平面図
370
               5
  6
Continuous
 62
               7
100
AcDbCircle
 10
-9329.3737776627895
 20
-4615.6429891728403
 30
0.0
 40
916.44724659398821
100
AcDbArc
 50
179.73574907082596
 51
269.49697595341252
  0
ARC
  5
E8
100
AcDbEntity
  8
平面図
370
               5
  6
Continuous
 62
               7
100
AcDbCircle
 10
-9329.1357505662891
 20
-6422.093908754
 30
0.0
 40
890.07754069930718
100
AcDbArc
 50
90.533250035845214
 51
180.0
  0
ARC
  5
E9
100
AcDbEntity
  8
平面図
370
               5
  6
Continuous
 62
               7
100
AcDbCircle
 10
9325.7551611150011
 20
-4579.5914874726795
 30
0.0
 40
923.41450978544526
100
AcDbArc
 50
270.0
 51
0.0
  0
ARC
  5
EA
100
AcDbEntity
  8
平面図
370
               5
  6
Continuous
 62
               7
100
AcDbCircle
 10
9326.1756109188027
 20
-6422.8944708212503
 30
0.0
 40
909.76832642199952
100
AcDbArc
 50
0.0
 51
90.02618795459648
  0
LINE
  5
EB
100
AcDbEntity
  8
平面図
370
               5
  6
Continuous
 62
               7
100
AcDbLine
 10
10800.482593888803
 20
0.0
 30
0.0
 11
10698.922543197601
 21
0.0
 31
0.0
  0
LINE
  5
EC
100
AcDbEntity
  8
平面図
370
               5
  6
Continuous
 62
               7
100
AcDbLine
 10
-5678.7034095182398
 20
-918.27759391084874
 30
0.0
 11
-7798.4568559416102
 21
-6424.3329265765396
 31
0.0
  0
LINE
  5
ED
100
AcDbEntity
  8
平面図
370
               5
  6
Continuous
 62
               7
100
AcDbLine
 10
-7229.0854943808899
 20
-250.53043517606102
 30
0.0
 11
-7372.8793351226504
 21
-250.53043517606102
 31
0.0
  0
LINE
  5
EE
100
AcDbEntity
  8
平面図
370
               5
  6
Continuous
 62
               7
100
AcDbLine
 10
-10244.295476814001
 20
-4571.3840267425203
 30
0.0
 11
-9036.3468701972597
 21
-4571.3840267425203
 31
0.0
  0
LINE
  5
EF
100
AcDbEntity
  8
平面図
370
               5
  6
Continuous
 62
               7
100
AcDbLine
 10
7230.289141747
 20
-250.53043517606102
 30
0.0
 11
7380.4325629394998
 21
-250.53043517606102
 31
0.0
  0
LINE
  5
F0
100
AcDbEntity
  8
平面図
370
               5
  6
Continuous
 62
               7
100
AcDbLine
 10
8700.0
 20
11797.925572464897
 30
0.0
 11
8700.0
 21
11099.469564823999
 31
0.0
  0
LINE
  5
F1
100
AcDbEntity
  8
平面図
370
               5
  6
Continuous
 62
               7
100
AcDbLine
 10
8700.0
 20
11099.469564823999
 30
0.0
 11
9522.4050412746001
 21
11099.469564823999
 31
0.0
  0
LINE
  5
F2
100
AcDbEntity
  8
平面図
370
               5
  6
Continuous
 62
               7
100
AcDbLine
 10
-2650.0
 20
11099.469564823999
 30
0.0
 11
-3350.0
 21
11099.469564823999
 31
0.0
  0
LINE
  5
F3
100
AcDbEntity
  8
平面図
370
               5
  6
Continuous
 62
               7
100
AcDbLine
 10
-8650.0
 20
11799.469564823998
 30
0.0
 11
-8650.0
 21
11099.469564823999
 31
0.0
  0
LINE
  5
F4
100
AcDbEntity
  8
平面図
370
               5
  6
STYLE_01
 62
               7
100
AcDbLine
 10
-11144.548076040897
 20
11101.893874466001
 30
0.0
 11
-12944.548076040897
 21
11101.893874466001
 31
0.0
  0
LINE
  5
F5
100
AcDbEntity
  8
平面図
370
               5
  6
STYLE_01
 62
               7
100
AcDbLine
 10
9526.8670471824007
 20
11099.469564823999
 30
0.0
 11
10581.6760478996
 21
11099.469564823999
 31
0.0
  0
LINE
  5
F6
100
AcDbEntity
  8
平面図
370
               5
  6
Continuous
 62
               7
100
AcDbLine
 10
14614.8488776741
 20
11104.6662878447
 30
0.0
 11
15102.686882505302
 21
11104.6662878447
 31
0.0
  0
LINE
  5
F7
100
AcDbEntity
  8
平面図
370
               5
  6
Continuous
 62
               7
100
AcDbLine
 10
-12949.085841130298
 20
11099.469564823999
 30
0.0
 11
-15112.8329142816
 21
11096.088938458501
 31
0.0
  0
LINE
  5
F8
100
AcDbEntity
  8
平面図
370
               5
  6
Continuous
 62
               7
100
AcDbLine
 10
-15112.8329142816
 20
11098.4775153588
 30
0.0
 11
-15112.8329142816
 21
6298.4775153587798
 31
0.0
  0
LINE
  5
F9
100
AcDbEntity
  8
平面図
370
               5
  6
Continuous
 62
               7
100
AcDbLine
 10
-15112.679008430998
 20
6298.4775153587798
 30
0.0
 11
-14637.641681458499
 21
6298.4775153587798
 31
0.0
  0
LINE
  5
FA
100
AcDbEntity
  8
平面図
370
               5
  6
Continuous
 62
               7
100
AcDbLine
 10
-14637.641681458499
 20
5598.4775153587798
 30
0.0
 11
-15107.4949548205
 21
5598.4775153587798
 31
0.0
  0
LINE
  5
FB
100
AcDbEntity
  8
平面図
370
               5
  6
Continuous
 62
               7
100
AcDbLine
 10
-15106.1749340028
 20
5597.63859295168
 30
0.0
 11
-15106.1749340028
 21
-1.5245748895904399
 31
0.0
  0
LINE
  5
FC
100
AcDbEntity
  8
平面図
370
               5
  6
Continuous
 62
               7
100
AcDbLine
 10
-15105.501727624098
 20
-4.2801772207494651
 30
0.0
 11
-12236.568193688399
 21
-4.2801772207494651
 31
0.0
  0
LINE
  5
FD
100
AcDbEntity
  8
平面図
370
               5
  6
Continuous
 62
               7
100
AcDbLine
 10
15102.686882505302
 20
11104.6662878447
 30
0.0
 11
15102.686882505302
 21
6504.6662878446796
 31
0.0
  0
LINE
  5
FE
100
AcDbEntity
  8
平面図
370
               5
  6
Continuous
 62
               7
100
AcDbLine
 10
15098.255143504903
 20
5804.6662878446796
 30
0.0
 11
15098.255143504903
 21
177.59890005089119
 31
0.0
  0
LINE
  5
FF
100
AcDbEntity
  8
平面図
370
               5
  6
Continuous
 62
               7
100
AcDbLine
 10
14606.768954166801
 20
-145.33371215532998
 30
0.0
 11
14748.737737393702
 21
-145.33371215532998
 31
0.0
  0
LINE
  5
100
100
AcDbEntity
  8
平面図
370
               5
  6
Continuous
 62
               7
100
AcDbLine
 10
14748.737737393702
 20
-145.33371215532998
 30
0.0
 11
14748.737737393702
 21
-645.33371215532998
 31
0.0
  0
LINE
  5
101
100
AcDbEntity
  8
平面図
370
               5
  6
Continuous
 62
               7
100
AcDbLine
 10
14748.737737393702
 20
-645.33371215532998
 30
0.0
 11
15102.686882505302
 21
-645.33371215532998
 31
0.0
  0
LINE
  5
102
100
AcDbEntity
  8
平面図
370
               5
  6
Continuous
 62
               7
100
AcDbLine
 10
15115.681284136601
 20
-4245.1018943874697
 30
0.0
 11
12602.524443185601
 21
-4245.1018943874697
 31
0.0
  0
LINE
  5
103
100
AcDbEntity
  8
平面図
370
               5
  6
Continuous
 62
               7
100
AcDbLine
 10
12593.5790177704
 20
-4241.5088418202104
 30
0.0
 11
12593.5790177704
 21
-129.349981176239
 31
0.0
  0
LINE
  5
104
100
AcDbEntity
  8
平面図
370
               5
  6
Continuous
 62
               7
100
AcDbLine
 10
12396.240182838003
 20
-4493.79951302259
 30
0.0
 11
12996.834494274703
 21
-4493.79951302259
 31
0.0
  0
LINE
  5
105
100
AcDbEntity
  8
平面図
370
               5
  6
Continuous
 62
               7
100
AcDbLine
 10
13146.834494274703
 20
-4493.79951302259
 30
0.0
 11
15300.415491010303
 21
-4493.79951302259
 31
0.0
  0
LINE
  5
106
100
AcDbEntity
  8
平面図
370
               5
  6
Continuous
 62
               7
100
AcDbLine
 10
-13253.938862306801
 20
1.91637001439085
 30
0.0
 11
-13253.938862306801
 21
11101.9163700144
 31
0.0
  0
LINE
  5
107
100
AcDbEntity
  8
平面図
370
               9
  6
Continuous
 62
               7
100
AcDbLine
 10
-12878.618024278097
 20
124.80191325229907
 30
0.0
 11
-11274.225736058997
 21
124.80191325229907
 31
0.0
  0
LINE
  5
108
100
AcDbEntity
  8
平面図
370
               9
  6
Continuous
 62
               7
100
AcDbLine
 10
-12889.254262763297
 20
376.61671784840109
 30
0.0
 11
-11284.861974544099
 21
376.61671784840109
 31
0.0
  0
LINE
  5
109
100
AcDbEntity
  8
平面図
370
               9
  6
Continuous
 62
               7
100
AcDbLine
 10
-12885.705003432198
 20
600.0
 30
0.0
 11
-11281.312715213
 21
600.0
 31
0.0
  0
LINE
  5
10A
100
AcDbEntity
  8
平面図
370
               9
  6
Continuous
 62
               7
100
AcDbLine
 10
-12885.705003432198
 20
850.0
 30
0.0
 11
-11281.312715213
 21
850.0
 31
0.0
  0
LINE
  5
10B
100
AcDbEntity
  8
平面図
370
               9
  6
Continuous
 62
               7
100
AcDbLine
 10
-12885.705003432198
 20
1150.0
 30
0.0
 11
-11281.312715213
 21
1150.0
 31
0.0
  0
LINE
  5
10C
100
AcDbEntity
  8
平面図
370
               9
  6
Continuous
 62
               7
100
AcDbLine
 10
-12885.705003432198
 20
1650.0
 30
0.0
 11
-11281.312715213
 21
1650.0
 31
0.0
  0
LINE
  5
10D
100
AcDbEntity
  8
平面図
370
               9
  6
Continuous
 62
               7
100
AcDbLine
 10
-12888.096238370399
 20
2050.0
 30
0.0
 11
-11283.703950151201
 21
2050.0
 31
0.0
  0
LINE
  5
10E
100
AcDbEntity
  8
平面図
370
               9
  6
Continuous
 62
               7
100
AcDbLine
 10
-12883.808181456199
 20
2325.0
 30
0.0
 11
-11279.415893236997
 21
2325.0
 31
0.0
  0
LINE
  5
10F
100
AcDbEntity
  8
平面図
370
               9
  6
Continuous
 62
               7
100
AcDbLine
 10
-12883.808181456199
 20
2600.0
 30
0.0
 11
-11279.415893236997
 21
2600.0
 31
0.0
  0
LINE
  5
110
100
AcDbEntity
  8
平面図
370
               9
  6
Continuous
 62
               7
100
AcDbLine
 10
-12883.554632903499
 20
3150.63471507226
 30
0.0
 11
-11279.1623446843
 21
3150.63471507226
 31
0.0
  0
LINE
  5
111
100
AcDbEntity
  8
平面図
370
               9
  6
Continuous
 62
               7
100
AcDbLine
 10
-12886.869493003098
 20
4450.0
 30
0.0
 11
-11282.477204783998
 21
4450.0
 31
0.0
  0
LINE
  5
112
100
AcDbEntity
  8
平面図
370
               9
  6
Continuous
 62
               7
100
AcDbLine
 10
-12882.477200499197
 20
4874.99999999999
 30
0.0
 11
-11278.084912279999
 21
4874.99999999999
 31
0.0
  0
LINE
  5
113
100
AcDbEntity
  8
平面図
370
               9
  6
Continuous
 62
               7
100
AcDbLine
 10
-12882.477200499197
 20
5234.4318132967801
 30
0.0
 11
-11278.084912279999
 21
5234.4318132967801
 31
0.0
  0
LINE
  5
114
100
AcDbEntity
  8
平面図
370
               9
  6
Continuous
 62
               7
100
AcDbLine
 10
-12887.193107147599
 20
5551.8749731323796
 30
0.0
 11
-11282.800818928397
 21
5551.8749731323796
 31
0.0
  0
LINE
  5
115
100
AcDbEntity
  8
平面図
370
               9
  6
Continuous
 62
               7
100
AcDbLine
 10
-12882.477200499197
 20
5774.99999999998
 30
0.0
 11
-11278.084912279999
 21
5774.99999999998
 31
0.0
  0
LINE
  5
116
100
AcDbEntity
  8
平面図
370
               9
  6
Continuous
 62
               7
100
AcDbLine
 10
-12882.477200499197
 20
6074.99999999998
 30
0.0
 11
-11278.084912279999
 21
6074.99999999998
 31
0.0
  0
LINE
  5
117
100
AcDbEntity
  8
平面図
370
               9
  6
Continuous
 62
               7
100
AcDbLine
 10
-12882.477200499197
 20
6498.5795332419802
 30
0.0
 11
-11278.084912279999
 21
6498.5795332419802
 31
0.0
  0
LINE
  5
118
100
AcDbEntity
  8
平面図
370
               9
  6
Continuous
 62
               7
100
AcDbLine
 10
-12882.477200499197
 20
6843.8636265935802
 30
0.0
 11
-11278.084912279999
 21
6843.8636265935802
 31
0.0
  0
LINE
  5
119
100
AcDbEntity
  8
平面図
370
               9
  6
Continuous
 62
               7
100
AcDbLine
 10
-12882.477200499197
 20
7174.99999999998
 30
0.0
 11
-11278.084912279999
 21
7174.99999999998
 31
0.0
  0
LINE
  5
11A
100
AcDbEntity
  8
平面図
370
               9
  6
Continuous
 62
               7
100
AcDbLine
 10
-12882.477200499197
 20
7424.99999999998
 30
0.0
 11
-11278.084912279999
 21
7424.99999999998
 31
0.0
  0
LINE
  5
11B
100
AcDbEntity
  8
平面図
370
               9
  6
Continuous
 62
               7
100
AcDbLine
 10
-12882.477200499197
 20
7702.4431598355804
 30
0.0
 11
-11278.084912279999
 21
7702.4431598355804
 31
0.0
  0
LINE
  5
11C
100
AcDbEntity
  8
平面図
370
               9
  6
Continuous
 62
               7
100
AcDbLine
 10
-12882.477200499197
 20
8209.99999999998
 30
0.0
 11
-11278.084912279999
 21
8209.99999999998
 31
0.0
  0
LINE
  5
11D
100
AcDbEntity
  8
平面図
370
               9
  6
Continuous
 62
               7
100
AcDbLine
 10
-12887.193107147599
 20
8800.9090127488798
 30
0.0
 11
-11282.800818928397
 21
8800.9090127488798
 31
0.0
  0
LINE
  5
11E
100
AcDbEntity
  8
平面図
370
               9
  6
Continuous
 62
               7
100
AcDbLine
 10
-12898.8926813164
 20
10074.7272605941
 30
0.0
 11
-11294.5003930973
 21
10074.7272605941
 31
0.0
  0
LINE
  5
11F
100
AcDbEntity
  8
平面図
370
               9
  6
Continuous
 62
               7
100
AcDbLine
 10
-12902.181057199497
 20
10322.978928050299
 30
0.0
 11
-11297.788768980397
 21
10322.978928050299
 31
0.0
  0
LINE
  5
120
100
AcDbEntity
  8
平面図
370
               9
  6
Continuous
 62
               7
100
AcDbLine
 10
-12884.744363906699
 20
10599.034039616499
 30
0.0
 11
-11280.352075687599
 21
10599.034039616499
 31
0.0
  0
MTEXT
  5
121
100
AcDbEntity
  8
平面図
 62
               7
100
AcDbMText
 10
-14742.028183969203
 20
220.43873217464125
 30
0.0
 40
162.88411458333334
 41
0.0
 71
               1
 72
               1
  1
緞　　　　帳
  7
ＭＳ ゴシック
 73
               1
 44
0.7828267384257843
  0
MTEXT
  5
122
100
AcDbEntity
  8
平面図
 62
               7
100
AcDbMText
 10
-14780.733341605785
 20
443.02335188698999
 30
0.0
 40
162.88411458333334
 41
0.0
 71
               1
 72
               1
  1
バ　ト　ン　1
  7
ＭＳ ゴシック
 73
               1
 44
0.7828267384257843
  0
MTEXT
  5
123
100
AcDbEntity
  8
平面図
 62
               7
100
AcDbMText
 10
-14699.983930576211
 20
685.37252593044468
 30
0.0
 40
162.88411458333334
 41
0.0
 71
               1
 72
               1
  1
暗　 転　 幕
  7
ＭＳ ゴシック
 73
               1
 44
0.7828267384257843
  0
MTEXT
  5
124
100
AcDbEntity
  8
平面図
 62
               7
100
AcDbMText
 10
-14804.211762567586
 20
954.88461291955809
 30
0.0
 40
162.88411458333334
 41
0.0
 71
               1
 72
               1
  1
袖　　幕　　1
  7
ＭＳ ゴシック
 73
               1
 44
0.7828267384257843
  0
MTEXT
  5
125
100
AcDbEntity
  8
平面図
 62
               7
100
AcDbMText
 10
-14608.814068181237
 20
1262.7232487370884
 30
0.0
 40
162.88411458333334
 41
0.0
 71
               1
 72
               1
  1
B　  Ｌ 　1
  7
ＭＳ ゴシック
 73
               1
 44
0.7828267384257843
  0
MTEXT
  5
126
100
AcDbEntity
  8
平面図
 62
               7
100
AcDbMText
 10
-14595.589508687041
 20
1700.1883161821611
 30
0.0
 40
162.88411458333334
 41
0.0
 71
               1
 72
               1
  1
S　　Ｌ 　1
  7
ＭＳ ゴシック
 73
               1
 44
0.7828267384257843
  0
MTEXT
  5
127
100
AcDbEntity
  8
平面図
 62
               7
100
AcDbMText
 10
-14789.036520216883
 20
1935.5891246994365
 30
0.0
 40
162.88411458333334
 41
0.0
 71
               7
 72
               1
  1
バ　ト　ン　2\P
  7
ＭＳ ゴシック
 73
               1
 44
1.618047392415499
  0
MTEXT
  5
128
100
AcDbEntity
  8
平面図
 62
               7
100
AcDbMText
 10
-14466.314611771668
 20
2387.2910833781029
 30
0.0
 40
162.88411458333334
 41
0.0
 71
               1
 72
               1
  1
一文字幕 2
  7
ＭＳ ゴシック
 73
               1
 44
0.7828267384257843
  0
MTEXT
  5
129
100
AcDbEntity
  8
平面図
 62
               7
100
AcDbMText
 10
-14686.180959795318
 20
2682.8953923769641
 30
0.0
 40
162.88411458333334
 41
0.0
 71
               1
 72
               1
  1
引  割  幕 1
  7
ＭＳ ゴシック
 73
               1
 44
0.7828267384257843
  0
MTEXT
  5
12A
100
AcDbEntity
  8
平面図
 62
               7
100
AcDbMText
 10
-14792.843762696099
 20
4296.8142007004662
 30
0.0
 40
162.88411458333334
 41
0.0
 71
               7
 72
               1
  1
袖　　幕　　2\P
  7
ＭＳ ゴシック
 73
               1
 44
1.618047392415499
  0
MTEXT
  5
12B
100
AcDbEntity
  8
平面図
 62
               7
100
AcDbMText
 10
-14562.205026140055
 20
4734.2792681455485
 30
0.0
 40
162.88411458333334
 41
0.0
 71
               7
 72
               1
  1
S　　Ｌ 　2\P
  7
ＭＳ ゴシック
 73
               1
 44
1.618047392415499
  0
MTEXT
  5
12C
100
AcDbEntity
  8
平面図
 62
               7
100
AcDbMText
 10
-14773.831495371694
 20
5088.0845132110762
 30
0.0
 40
162.88411458333334
 41
0.0
 71
               7
 72
               1
  1
バ　ト　ン　3\P
  7
ＭＳ ゴシック
 73
               1
 44
1.618047392415499
  0
MTEXT
  5
12D
100
AcDbEntity
  8
平面図
 62
               7
100
AcDbMText
 10
-14773.831495371694
 20
5431.2789998304597
 30
0.0
 40
162.88411458333334
 41
0.0
 71
               7
 72
               1
  1
バ　ト　ン　4\P
  7
ＭＳ ゴシック
 73
               1
 44
1.618047392415499
  0
MTEXT
  5
12E
100
AcDbEntity
  8
平面図
 62
               7
100
AcDbMText
 10
-14438.025323355974
 20
5839.5453361692016
 30
0.0
 40
162.88411458333334
 41
0.0
 71
               1
 72
               1
  1
一文字幕 3
  7
ＭＳ ゴシック
 73
               1
 44
0.7828267384257843
  0
MTEXT
  5
12F
100
AcDbEntity
  8
平面図
 62
               7
100
AcDbMText
 10
-14648.863458248132
 20
6146.3937393111983
 30
0.0
 40
162.88411458333334
 41
0.0
 71
               1
 72
               1
  1
引  割  幕 2 
  7
ＭＳ ゴシック
 73
               1
 44
0.7828267384257843
  0
MTEXT
  5
130
100
AcDbEntity
  8
平面図
 62
               7
100
AcDbMText
 10
-14765.338243695896
 20
6381.7945478284564
 30
0.0
 40
162.88411458333334
 41
0.0
 71
               7
 72
               1
  1
バ　ト　ン　5\P
  7
ＭＳ ゴシック
 73
               1
 44
1.618047392415499
  0
MTEXT
  5
131
100
AcDbEntity
  8
平面図
 62
               7
100
AcDbMText
 10
-14562.342665694654
 20
6937.3124025385805
 30
0.0
 40
162.88411458333334
 41
0.0
 71
               1
 72
               1
  1
S　　Ｌ 　3
  7
ＭＳ ゴシック
 73
               1
 44
0.7828267384257843
  0
MTEXT
  5
132
100
AcDbEntity
  8
平面図
 62
               7
100
AcDbMText
 10
-14773.810495604805
 20
7497.5173345527883
 30
0.0
 40
162.88411458333334
 41
0.0
 71
               1
 72
               1
  1
袖　　幕　  3　
  7
ＭＳ ゴシック
 73
               1
 44
0.7828267384257843
  0
MTEXT
  5
133
100
AcDbEntity
  8
平面図
 62
               7
100
AcDbMText
 10
-14780.257114593194
 20
7568.9844559241483
 30
0.0
 40
162.88411458333334
 41
0.0
 71
               7
 72
               1
  1
バ　ト　ン　6\P
  7
ＭＳ ゴシック
 73
               1
 44
0.7828267384257843
  0
MTEXT
  5
134
100
AcDbEntity
  8
平面図
 62
               7
100
AcDbMText
 10
-14581.736067426751
 20
8276.0218761181932
 30
0.0
 40
162.88411458333334
 41
0.0
 71
               1
 72
               1
  1
正面反射板
  7
ＭＳ ゴシック
 73
               1
 44
0.7828267384257843
  0
MTEXT
  5
135
100
AcDbEntity
  8
平面図
 62
               7
100
AcDbMText
 10
-14722.047119721203
 20
8862.2964880136824
 30
0.0
 40
162.88411458333334
 41
0.0
 71
               1
 72
               1
  1
Ｕ　　　　Ｈ
  7
ＭＳ ゴシック
 73
               1
 44
0.7828267384257843
  0
MTEXT
  5
136
100
AcDbEntity
  8
平面図
 62
               7
100
AcDbMText
 10
-14707.578839488597
 20
10653.216791427123
 30
0.0
 40
162.88411458333334
 41
0.0
 71
               1
 72
               1
  1
ホリゾント幕
  7
ＭＳ ゴシック
 73
               1
 44
0.7828267384257843
  0
LINE
  5
137
100
AcDbEntity
  8
平面図
370
               5
  6
Continuous
 62
               7
100
AcDbLine
 10
-11144.548076040897
 20
11301.893874466001
 30
0.0
 11
-9346.1762558620685
 21
11301.893874466001
 31
0.0
  0
LINE
  5
138
100
AcDbEntity
  8
平面図
370
               5
  6
Continuous
 62
               7
100
AcDbLine
 10
-9350.0000000000073
 20
11299.535089569799
 30
0.0
 11
-9350.0000000000073
 21
12058.1776065913
 31
0.0
  0
LINE
  5
139
100
AcDbEntity
  8
平面図
370
               5
  6
Continuous
 62
               7
100
AcDbLine
 10
-9348.3926190731399
 20
12049.4686020878
 30
0.0
 11
9454.8367245049012
 21
12049.4686020878
 31
0.0
  0
LINE
  5
13A
100
AcDbEntity
  8
平面図
370
               5
  6
Continuous
 62
               7
100
AcDbLine
 10
9453.2293435780011
 20
11246.0717840253
 30
0.0
 11
9521.8984448644005
 21
11246.0717840253
 31
0.0
  0
LINE
  5
13B
100
AcDbEntity
  8
平面図
370
               5
  6
Continuous
 62
               7
100
AcDbLine
 10
9521.8984448644005
 20
11246.0717840253
 30
0.0
 11
9521.8984448644005
 21
11101.7351668551
 31
0.0
  0
LINE
  5
13C
100
AcDbEntity
  8
平面図
370
               5
  6
Continuous
 62
               7
100
AcDbLine
 10
-12949.085841130298
 20
11299.469564823999
 30
0.0
 11
-14749.085841130298
 21
11299.469564823999
 31
0.0
  0
LINE
  5
13D
100
AcDbEntity
  8
平面図
370
               5
  6
Continuous
 62
               7
100
AcDbLine
 10
-15444.680923270898
 20
12002.247927844201
 30
0.0
 11
-15444.680923270898
 21
-6472.0904967691304
 31
0.0
  0
LINE
  5
13E
100
AcDbEntity
  8
平面図
370
               5
  6
Continuous
 62
               7
100
AcDbLine
 10
15448.7377373938
 20
13985.131016568099
 30
0.0
 11
15448.737737393702
 21
-4498.6151910967501
 31
0.0
  0
LINE
  5
13F
100
AcDbEntity
  8
平面図
370
               5
  6
Continuous
 62
               7
100
AcDbLine
 10
15243.2443796849
 20
14498.569132692199
 30
0.0
 11
14628.0822911293
 21
14498.569132692199
 31
0.0
  0
LINE
  5
140
100
AcDbEntity
  8
平面図
370
               5
  6
Continuous
 62
               7
100
AcDbLine
 10
15448.7377373938
 20
13985.131016568099
 30
0.0
 11
15448.7377373938
 21
15724.231114384198
 31
0.0
  0
LINE
  5
141
100
AcDbEntity
  8
平面図
370
               5
  6
Continuous
 62
               7
100
AcDbLine
 10
15243.2443796849
 20
14498.569132692199
 30
0.0
 11
15243.2443796849
 21
15736.083944135298
 31
0.0
  0
LINE
  5
142
100
AcDbEntity
  8
平面図
370
               5
  6
Continuous
 62
               7
100
AcDbLine
 10
14623.2717048218
 20
14498.569132692199
 30
0.0
 11
14623.2717048218
 21
11104.6662878447
 31
0.0
  0
LINE
  5
143
100
AcDbEntity
  8
平面図
370
               5
  6
STYLE_01
 62
               7
100
AcDbLine
 10
11395.4732597203
 20
14343.774875324598
 30
0.0
 11
14595.4732597203
 21
14343.774875324598
 31
0.0
  0
LINE
  5
144
100
AcDbEntity
  8
平面図
370
               5
  6
STYLE_01
 62
               7
100
AcDbLine
 10
13146.834494274703
 20
-4593.8374023902898
 30
0.0
 11
13146.834494274703
 21
-5393.7995130225891
 31
0.0
  0
LINE
  5
145
100
AcDbEntity
  8
平面図
370
               5
  6
Continuous
 62
               7
100
AcDbLine
 10
13071.647494191402
 20
-5393.7995130220997
 30
0.0
 11
13146.834494274703
 21
-5393.7995130225891
 31
0.0
  0
LINE
  5
146
100
AcDbEntity
  8
平面図
370
               5
  6
Continuous
 62
               7
100
AcDbLine
 10
12996.834494274703
 20
-4493.79951302259
 30
0.0
 11
12996.834494274703
 21
-4598.56169604549
 31
0.0
  0
LINE
  5
147
100
AcDbEntity
  8
平面図
370
               5
  6
Continuous
 62
               7
100
AcDbLine
 10
13146.834494274703
 20
-4493.79951302259
 30
0.0
 11
13146.834494274703
 21
-4593.8374023902898
 31
0.0
  0
LINE
  5
148
100
AcDbEntity
  8
平面図
370
               5
  6
Continuous
 62
               7
100
AcDbLine
 10
12997.184134756601
 20
-4594.5893462628201
 30
0.0
 11
13147.184134756601
 21
-4594.5893462628201
 31
0.0
  0
LINE
  5
149
100
AcDbEntity
  8
平面図
370
               5
  6
Continuous
 62
               7
100
AcDbLine
 10
13071.647494191402
 20
-5393.7995130220997
 30
0.0
 11
12998.204110889401
 21
-5393.7995130220997
 31
0.0
  0
LINE
  5
14A
100
AcDbEntity
  8
平面図
370
               5
  6
Continuous
 62
               7
100
AcDbLine
 10
13146.834494274703
 20
-5393.7995130225891
 30
0.0
 11
15427.3534777612
 21
-5393.7995130225891
 31
0.0
  0
LINE
  5
14B
100
AcDbEntity
  8
平面図
370
               5
  6
Continuous
 62
               7
100
AcDbLine
 10
15427.3534777612
 20
-5393.7995130225891
 30
0.0
 11
15452.460964757302
 21
-5393.7995130225891
 31
0.0
  0
LINE
  5
14C
100
AcDbEntity
  8
平面図
370
               5
  6
Continuous
 62
               7
100
AcDbLine
 10
15452.460964757302
 20
-5393.7995130225891
 30
0.0
 11
15452.460964757302
 21
-5900.446653695969
 31
0.0
  0
LINE
  5
14D
100
AcDbEntity
  8
平面図
370
               5
  6
Continuous
 62
               7
100
AcDbLine
 10
12998.204110889401
 20
-5393.7995130220997
 30
0.0
 11
12998.204110889401
 21
-5893.7995130220997
 31
0.0
  0
LINE
  5
14E
100
AcDbEntity
  8
平面図
370
               5
  6
Continuous
 62
               7
100
AcDbLine
 10
12998.204110889401
 20
-5893.7995130220997
 30
0.0
 11
13148.204110889401
 21
-5893.7995130220997
 31
0.0
  0
LINE
  5
14F
100
AcDbEntity
  8
平面図
370
               5
  6
Continuous
 62
               7
100
AcDbLine
 10
13148.204110889401
 20
-5893.7995130220997
 30
0.0
 11
13148.204110889401
 21
-5543.7995130220997
 31
0.0
  0
LINE
  5
150
100
AcDbEntity
  8
平面図
370
               5
  6
Continuous
 62
               7
100
AcDbLine
 10
13148.204110889401
 20
-5543.7995130220997
 30
0.0
 11
15308.0929145298
 21
-5543.7995130220997
 31
0.0
  0
LINE
  5
151
100
AcDbEntity
  8
平面図
370
               5
  6
Continuous
 62
               7
100
AcDbLine
 10
15110.4956323486
 20
-5543.7995130220997
 30
0.0
 11
15110.4956323486
 21
-5900.446653695969
 31
0.0
  0
LINE
  5
152
100
AcDbEntity
  8
平面図
370
               5
  6
Continuous
 62
               7
100
AcDbLine
 10
15102.686882505302
 20
-642.46123040607017
 30
0.0
 11
15102.686882505302
 21
-4243.1776234910403
 31
0.0
  0
LINE
  5
153
100
AcDbEntity
  8
平面図
370
               5
  6
Continuous
 62
               7
100
AcDbLine
 10
-12389.720151676098
 20
-163.7249740093298
 30
0.0
 11
-14802.234869831798
 21
-163.7249740093298
 31
0.0
  0
LINE
  5
154
100
AcDbEntity
  8
平面図
370
               5
  6
Continuous
 62
               7
100
AcDbLine
 10
-14802.234869831798
 20
-163.7249740093298
 30
0.0
 11
-14802.234869831798
 21
-663.72497400933025
 31
0.0
  0
LINE
  5
155
100
AcDbEntity
  8
平面図
370
               5
  6
Continuous
 62
               7
100
AcDbLine
 10
-14802.234869831798
 20
-663.72497400933025
 30
0.0
 11
-15108.728483756699
 21
-663.72497400933025
 31
0.0
  0
LINE
  5
156
100
AcDbEntity
  8
平面図
370
               5
  6
Continuous
 62
               7
100
AcDbLine
 10
-15444.680923270898
 20
-6472.0904967691304
 30
0.0
 11
-15444.680923270898
 21
-6846.4467765837699
 31
0.0
  0
LINE
  5
157
100
AcDbEntity
  8
平面図
370
               5
  6
Continuous
 62
               7
100
AcDbLine
 10
-12236.568193688399
 20
-4.2801772207494651
 30
0.0
 11
-12236.568193688399
 21
-3713.5075467991001
 31
0.0
  0
LINE
  5
158
100
AcDbEntity
  8
平面図
370
               5
  6
Continuous
 62
               7
100
AcDbLine
 10
-12389.720151676098
 20
-163.7249740093298
 30
0.0
 11
-12389.720151676098
 21
-3713.7249740093293
 31
0.0
  0
LINE
  5
159
100
AcDbEntity
  8
平面図
370
               5
  6
Continuous
 62
               7
100
AcDbLine
 10
-12389.720151676098
 20
-3713.7249740093293
 30
0.0
 11
-12668.312283928899
 21
-3713.7249740093293
 31
0.0
  0
LINE
  5
15A
100
AcDbEntity
  8
平面図
370
               5
  6
Continuous
 62
               7
100
AcDbLine
 10
-12668.312283928899
 20
-4413.7249740093303
 30
0.0
 11
-12389.720151676098
 21
-4413.7249740093303
 31
0.0
  0
LINE
  5
15B
100
AcDbEntity
  8
平面図
370
               5
  6
Continuous
 62
               7
100
AcDbLine
 10
-12238.027033539198
 20
-4863.7249740093303
 30
0.0
 11
-12389.720151676098
 21
-4863.7249740093303
 31
0.0
  0
LINE
  5
15C
100
AcDbEntity
  8
平面図
370
               5
  6
Continuous
 62
               7
100
AcDbLine
 10
-15108.728483757201
 20
-667.89965278644013
 30
0.0
 11
-15108.728483757201
 21
-3717.8996527864401
 31
0.0
  0
LINE
  5
15D
100
AcDbEntity
  8
平面図
370
               5
  6
Continuous
 62
               7
100
AcDbLine
 10
-15108.728483757201
 20
-3717.8996527864401
 30
0.0
 11
-14608.728483757201
 21
-3717.8996527864401
 31
0.0
  0
LINE
  5
15E
100
AcDbEntity
  8
平面図
370
               5
  6
Continuous
 62
               7
100
AcDbLine
 10
-14608.728483757201
 20
-3717.8996527864401
 30
0.0
 11
-14608.728483757201
 21
-4417.8996527864401
 31
0.0
  0
LINE
  5
15F
100
AcDbEntity
  8
平面図
370
               5
  6
Continuous
 62
               7
100
AcDbLine
 10
-14608.728483757201
 20
-4417.8996527864401
 30
0.0
 11
-15108.728483757201
 21
-4417.8996527864401
 31
0.0
  0
LINE
  5
160
100
AcDbEntity
  8
平面図
370
               5
  6
Continuous
 62
               7
100
AcDbLine
 10
-15108.802512393599
 20
-4407.7527444834304
 30
0.0
 11
-15108.802512393599
 21
-6729.2139116223689
 31
0.0
  0
LINE
  5
161
100
AcDbEntity
  8
平面図
370
               5
  6
Continuous
 62
               7
100
AcDbLine
 10
-15108.802512393599
 20
-6729.2139116223689
 30
0.0
 11
-14608.802512393599
 21
-6729.2139116223689
 31
0.0
  0
LINE
  5
162
100
AcDbEntity
  8
平面図
370
               5
  6
Continuous
 62
               7
100
AcDbLine
 10
-14608.802512393599
 20
-6729.2139116223689
 30
0.0
 11
-14608.802512393599
 21
-6897.8145470942209
 31
0.0
  0
LINE
  5
163
100
AcDbEntity
  8
平面図
370
               5
  6
Continuous
 62
               7
100
AcDbLine
 10
-12389.7941803125
 20
-6911.6482237763603
 30
0.0
 11
-12389.7941803125
 21
-6575.0392328452608
 31
0.0
  0
LINE
  5
164
100
AcDbEntity
  8
平面図
370
               5
  6
Continuous
 62
               7
100
AcDbLine
 10
-12389.7941803125
 20
-6575.0392328452608
 30
0.0
 11
-12239.7941803125
 21
-6575.0392328452608
 31
0.0
  0
LINE
  5
165
100
AcDbEntity
  8
平面図
370
               5
  6
Continuous
 62
               7
100
AcDbLine
 10
-12236.642222324797
 20
-6565.59443605668
 30
0.0
 11
-12236.642222324797
 21
-6897.8145470942209
 31
0.0
  0
LINE
  5
166
100
AcDbEntity
  8
平面図
370
               5
  6
Continuous
 62
               7
100
AcDbLine
 10
-7798.1961799596402
 20
-6425.2547705984389
 30
0.0
 11
-9248.1961799596393
 21
-6425.2547705984389
 31
0.0
  0
LINE
  5
167
100
AcDbEntity
  8
平面図
370
               5
  6
Continuous
 62
               7
100
AcDbLine
 10
-9248.1961799596393
 20
-6425.2547705984389
 30
0.0
 11
-9248.1961799596393
 21
-6575.2547705984389
 31
0.0
  0
LINE
  5
168
100
AcDbEntity
  8
平面図
370
               5
  6
Continuous
 62
               7
100
AcDbLine
 10
-9248.1961799596393
 20
-6575.2547705984389
 30
0.0
 11
-8048.1961799596402
 21
-6575.2547705984389
 31
0.0
  0
LINE
  5
169
100
AcDbEntity
  8
平面図
370
               5
  6
Continuous
 62
               7
100
AcDbLine
 10
-8048.1961799596402
 20
-6575.2547705984389
 30
0.0
 11
-8151.1746323379803
 21
-6842.7410944556495
 31
0.0
  0
LINE
  5
16A
100
AcDbEntity
  8
平面図
370
               5
  6
Continuous
 62
               7
100
AcDbLine
 10
-7798.1961799596402
 20
-6425.2547705984389
 30
0.0
 11
-7953.9243023393201
 21
-6829.7582566625597
 31
0.0
  0
LINE
  5
16B
100
AcDbEntity
  8
平面図
370
               5
  6
Continuous
 62
               7
100
AcDbLine
 10
-12450.931044126501
 20
-7013.6135367943307
 30
0.0
 11
-12451.579148313198
 21
-7013.6135367943307
 31
0.0
  0
LINE
  5
16C
100
AcDbEntity
  8
平面図
370
               5
  6
Continuous
 62
               7
100
AcDbLine
 10
-10429.3737776628
 20
-6832.4430906267198
 30
0.0
 11
-10429.3737776628
 21
-6369.51069935141
 31
0.0
  0
LINE
  5
16D
100
AcDbEntity
  8
平面図
370
               5
  6
Continuous
 62
               7
100
AcDbLine
 10
-10429.1357505663
 20
-6372.093908754
 30
0.0
 11
-10225.757874098897
 21
-6372.093908754
 31
0.0
  0
LINE
  5
16E
100
AcDbEntity
  8
平面図
370
               5
  6
Continuous
 62
               7
100
AcDbLine
 10
-10225.757874098897
 20
-6372.093908754
 30
0.0
 11
-10225.757874098897
 21
-6422.093908754
 31
0.0
  0
LINE
  5
16F
100
AcDbEntity
  8
平面図
370
               5
  6
Continuous
 62
               7
100
AcDbLine
 10
-10225.757874098897
 20
-6422.093908754
 30
0.0
 11
-9329.1357505662891
 21
-6422.093908754
 31
0.0
  0
LINE
  5
170
100
AcDbEntity
  8
平面図
370
               5
  6
Continuous
 62
               7
100
AcDbLine
 10
-9327.9432985353887
 20
-6418.9522533610389
 30
0.0
 11
-9327.9432985353887
 21
-6368.9522533610389
 31
0.0
  0
LINE
  5
171
100
AcDbEntity
  8
平面図
370
               5
  6
Continuous
 62
               7
100
AcDbLine
 10
-9329.1357505662891
 20
-6372.093908754
 30
0.0
 11
-9248.7035295083297
 21
-6372.093908754
 31
0.0
  0
LINE
  5
172
100
AcDbEntity
  8
平面図
370
               5
  6
Continuous
 62
               7
100
AcDbLine
 10
-9248.9415566048301
 20
-6369.5106993504296
 30
0.0
 11
-9248.9415566048301
 21
-6443.4630226620093
 31
0.0
  0
LINE
  5
173
100
AcDbEntity
  8
平面図
370
               5
  6
Continuous
 62
               7
100
AcDbLine
 10
-9248.1961799596393
 20
-6575.2547705984389
 30
0.0
 11
-10421.717740392098
 21
-6575.2547705984389
 31
0.0
  0
LINE
  5
174
100
AcDbEntity
  8
平面図
370
               5
  6
STYLE_01
 62
               7
100
AcDbLine
 10
-9329.3737776627895
 20
-6369.2114530431309
 30
0.0
 11
-9329.3737776627895
 21
-4615.6429891728403
 31
0.0
  0
LINE
  5
175
100
AcDbEntity
  8
平面図
370
               5
  6
Continuous
 62
               7
100
AcDbLine
 10
-9248.7590594212488
 20
-4575.4473123122598
 30
0.0
 11
-9248.7590594212488
 21
-4615.6429891718599
 31
0.0
  0
LINE
  5
176
100
AcDbEntity
  8
平面図
370
               5
  6
Continuous
 62
               7
100
AcDbLine
 10
-9437.39532535732
 20
-4575.4473123122598
 30
0.0
 11
-9437.39532535732
 21
-4614.1376836214004
 31
0.0
  0
LINE
  5
177
100
AcDbEntity
  8
平面図
370
               5
  6
Continuous
 62
               7
100
AcDbLine
 10
-9437.39532535732
 20
-4613.7745354905201
 30
0.0
 11
-9253.4749660701382
 21
-4613.7745354905201
 31
0.0
  0
LINE
  5
178
100
AcDbEntity
  8
平面図
370
               5
  6
Continuous
 62
               7
100
AcDbLine
 10
4945.7825038810997
 20
14343.774875324598
 30
0.0
 11
-9749.7126520104794
 21
14343.774875324598
 31
0.0
  0
LINE
  5
179
100
AcDbEntity
  8
平面図
370
               5
  6
Continuous
 62
               7
100
AcDbLine
 10
-7190.3967116473405
 20
-28.822943673139889
 30
0.0
 11
-7190.3967116473405
 21
-226.97432224128897
 31
0.0
  0
LINE
  5
17A
100
AcDbEntity
  8
平面図
370
               5
  6
Continuous
 62
               7
100
AcDbLine
 10
7191.9766053680996
 20
-30.692296301140232
 30
0.0
 11
7191.9766053680996
 21
-226.97432224128897
 31
0.0
  0
LINE
  5
17B
100
AcDbEntity
  8
平面図
370
               5
  6
Continuous
 62
               7
100
AcDbLine
 10
7228.4197891189997
 20
0.0
 30
0.0
 11
7191.9766053680996
 21
-30.692296301140232
 31
0.0
  0
LINE
  5
17C
100
AcDbEntity
  8
平面図
370
               5
  6
Continuous
 62
               7
100
AcDbLine
 10
7191.9766053680996
 20
-226.97432224128897
 30
0.0
 11
7230.289141747
 21
-250.53043517606102
 31
0.0
  0
LINE
  5
17D
100
AcDbEntity
  8
平面図
370
               5
  6
Continuous
 62
               7
100
AcDbLine
 10
-7229.0854943808899
 20
0.0
 30
0.0
 11
-7190.3967116473405
 21
-28.822943673139889
 31
0.0
  0
LINE
  5
17E
100
AcDbEntity
  8
平面図
370
               5
  6
Continuous
 62
               7
100
AcDbLine
 10
-7190.3967116473405
 20
-226.97432224128897
 30
0.0
 11
-7229.0854943808899
 21
-250.53043517606102
 31
0.0
  0
LINE
  5
17F
100
AcDbEntity
  8
平面図
370
               5
  6
STYLE_01
 62
               7
100
AcDbLine
 10
10800.482593888803
 20
0.0
 30
0.0
 11
12403.426287972499
 21
0.0
 31
0.0
  0
LINE
  5
180
100
AcDbEntity
  8
平面図
370
               5
  6
STYLE_01
 62
               7
100
AcDbLine
 10
14612.841489117302
 20
11104.6662878447
 30
0.0
 11
11432.841489117302
 21
11104.6662878447
 31
0.0
  0
LINE
  5
181
100
AcDbEntity
  8
平面図
370
               5
  6
Continuous
 62
               7
100
AcDbLine
 10
0.482593888809788
 20
-920.0
 30
0.0
 11
-5674.5174061111902
 21
-920.0
 31
0.0
  0
LINE
  5
182
100
AcDbEntity
  8
平面図
370
               5
  6
Continuous
 62
               7
100
AcDbLine
 10
0.482593888809788
 20
-920.0
 30
0.0
 11
5675.4825938887998
 21
-920.0
 31
0.0
  0
LINE
  5
183
100
AcDbEntity
  8
平面図
370
               5
  6
Continuous
 62
               7
100
AcDbLine
 10
-10695.811277402197
 20
-4611.4163047648299
 30
0.0
 11
-10245.811277402197
 21
-4611.4163047648299
 31
0.0
  0
LINE
  5
184
100
AcDbEntity
  8
平面図
370
               5
  6
Continuous
 62
               7
100
AcDbLine
 10
-10242.790171263099
 20
-4609.8609233109601
 30
0.0
 11
-10242.790171263099
 21
-4575.2388956508303
 31
0.0
  0
LINE
  5
185
100
AcDbEntity
  8
平面図
370
               5
  6
Continuous
 62
               7
100
AcDbLine
 10
5675.4825938887998
 20
-920.0
 30
0.0
 11
7795.2360403122002
 21
-6426.0553326656909
 31
0.0
  0
LINE
  5
186
100
AcDbEntity
  8
平面図
370
               5
  6
Continuous
 62
               7
100
AcDbLine
 10
7795.2360403122002
 20
-6426.0553326656909
 30
0.0
 11
9245.2360403122002
 21
-6426.0553326656909
 31
0.0
  0
LINE
  5
187
100
AcDbEntity
  8
平面図
370
               5
  6
Continuous
 62
               7
100
AcDbLine
 10
9245.2360403122002
 20
-6426.0553326656909
 30
0.0
 11
9245.2360403122002
 21
-6576.0553326656909
 31
0.0
  0
LINE
  5
188
100
AcDbEntity
  8
平面図
370
               5
  6
Continuous
 62
               7
100
AcDbLine
 10
9245.2360403122002
 20
-6576.0553326656909
 30
0.0
 11
8045.2360403122002
 21
-6576.0553326656909
 31
0.0
  0
LINE
  5
189
100
AcDbEntity
  8
平面図
370
               5
  6
Continuous
 62
               7
100
AcDbLine
 10
8045.2360403122002
 20
-6576.0553326656909
 30
0.0
 11
8145.8093671424003
 21
-6837.2943477274503
 31
0.0
  0
LINE
  5
18A
100
AcDbEntity
  8
平面図
370
               5
  6
Continuous
 62
               7
100
AcDbLine
 10
7795.2360403122002
 20
-6426.0553326656909
 30
0.0
 11
7955.2382150537996
 21
-6841.6606611817997
 31
0.0
  0
LINE
  5
18B
100
AcDbEntity
  8
平面図
370
               5
  6
Continuous
 62
               7
100
AcDbLine
 10
10426.4136380153
 20
-6832.4430906267198
 30
0.0
 11
10426.4136380153
 21
-6370.3112614186603
 31
0.0
  0
LINE
  5
18C
100
AcDbEntity
  8
平面図
370
               5
  6
Continuous
 62
               7
100
AcDbLine
 10
10426.175610918803
 20
-6372.8944708212503
 30
0.0
 11
10235.9439373391
 21
-6372.8944708212503
 31
0.0
  0
LINE
  5
18D
100
AcDbEntity
  8
平面図
370
               5
  6
Continuous
 62
               7
100
AcDbLine
 10
10235.9439373391
 20
-6372.8944708212503
 30
0.0
 11
10235.9439373391
 21
-6426.1470153003893
 31
0.0
  0
LINE
  5
18E
100
AcDbEntity
  8
平面図
370
               5
  6
Continuous
 62
               7
100
AcDbLine
 10
10235.943937340802
 20
-6422.8944708212503
 30
0.0
 11
9326.1756109188027
 21
-6422.8944708212503
 31
0.0
  0
LINE
  5
18F
100
AcDbEntity
  8
平面図
370
               5
  6
Continuous
 62
               7
100
AcDbLine
 10
9324.9831588879024
 20
-6419.7528154282909
 30
0.0
 11
9324.9831588879024
 21
-6369.7528154282909
 31
0.0
  0
LINE
  5
190
100
AcDbEntity
  8
平面図
370
               5
  6
Continuous
 62
               7
100
AcDbLine
 10
9326.1756109188027
 20
-6372.8944708212503
 30
0.0
 11
9245.7433898609015
 21
-6372.8944708212503
 31
0.0
  0
LINE
  5
191
100
AcDbEntity
  8
平面図
370
               5
  6
Continuous
 62
               7
100
AcDbLine
 10
9245.981416957402
 20
-6370.3112614176798
 30
0.0
 11
9245.981416957402
 21
-6444.2635847292704
 31
0.0
  0
LINE
  5
192
100
AcDbEntity
  8
平面図
370
               5
  6
Continuous
 62
               7
100
AcDbLine
 10
9245.2360403122002
 20
-6576.0553326656909
 30
0.0
 11
10418.757600744702
 21
-6576.0553326656909
 31
0.0
  0
LINE
  5
193
100
AcDbEntity
  8
平面図
370
               5
  6
STYLE_01
 62
               7
100
AcDbLine
 10
9326.4136380152995
 20
-6370.0120151103793
 30
0.0
 11
9326.4136380152995
 21
-4616.4435512400896
 31
0.0
  0
LINE
  5
194
100
AcDbEntity
  8
平面図
370
               5
  6
Continuous
 62
               7
100
AcDbLine
 10
10251.848704630902
 20
-4571.3840267425203
 30
0.0
 11
9043.9000980141027
 21
-4571.3840267425203
 31
0.0
  0
LINE
  5
195
100
AcDbEntity
  8
平面図
370
               5
  6
Continuous
 62
               7
100
AcDbLine
 10
9256.3122872381027
 20
-4575.4473123122598
 30
0.0
 11
9256.3122872381027
 21
-4615.6429891718599
 31
0.0
  0
LINE
  5
196
100
AcDbEntity
  8
平面図
370
               5
  6
Continuous
 62
               7
100
AcDbLine
 10
9444.9485531741993
 20
-4575.4473123122598
 30
0.0
 11
9444.9485531741993
 21
-4614.1376836214004
 31
0.0
  0
LINE
  5
197
100
AcDbEntity
  8
平面図
370
               5
  6
Continuous
 62
               7
100
AcDbLine
 10
9444.9485531741993
 20
-4613.7745354905201
 30
0.0
 11
9261.0281938869994
 21
-4613.7745354905201
 31
0.0
  0
LINE
  5
198
100
AcDbEntity
  8
平面図
370
               5
  6
Continuous
 62
               7
100
AcDbLine
 10
10707.070633928102
 20
0.0
 30
0.0
 11
10707.070633928102
 21
-1860.94856202967
 31
0.0
  0
LINE
  5
199
100
AcDbEntity
  8
平面図
370
               5
  6
Continuous
 62
               7
100
AcDbLine
 10
10703.364505219102
 20
-4611.4163047648399
 30
0.0
 11
10253.364505219102
 21
-4611.4163047648399
 31
0.0
  0
LINE
  5
19A
100
AcDbEntity
  8
平面図
370
               5
  6
Continuous
 62
               7
100
AcDbLine
 10
10250.343399079902
 20
-4609.8609233109601
 30
0.0
 11
10250.343399079902
 21
-4575.2388956508303
 31
0.0
  0
LINE
  5
19B
100
AcDbEntity
  8
平面図
370
               5
  6
STYLE_01
 62
               7
100
AcDbLine
 10
-10699.517406111197
 20
0.0
 30
0.0
 11
-12209.517406111197
 21
0.0
 31
0.0
  0
LINE
  5
19C
100
AcDbEntity
  8
平面図
370
               5
  6
Continuous
 62
               7
100
AcDbLine
 10
-9749.7126520104794
 20
14343.774875324598
 30
0.0
 11
-16349.093430227098
 21
14343.774875324598
 31
0.0
  0
LINE
  5
19D
100
AcDbEntity
  8
平面図
370
               9
  6
Continuous
 62
               7
100
AcDbLine
 10
-12891.7130734932
 20
3897.1416487883498
 30
0.0
 11
-11287.320785273998
 21
3897.1416487883498
 31
0.0
  0
MTEXT
  5
19E
100
AcDbEntity
  8
平面図
 62
               7
100
AcDbMText
 10
-14818.673621820621
 20
3759.5684896615985
 30
0.0
 40
162.88411458333334
 41
2143.5436313329919
 71
               7
 72
               1
  1
天　　　　反　　　\P
  7
ＭＳ ゴシック
 73
               1
 44
1.618047392415499
  0
MTEXT
  5
19F
100
AcDbEntity
  8
平面図
 62
               7
100
AcDbMText
 10
13151.115069034062
 20
-2283.8775695574923
 30
0.0
 40
262.39999999999998
 41
0.0
 71
               1
 72
               1
  1
ピアノ庫
  7
ＭＳ ゴシック
 73
               1
 44
0.7828267384257843
  0
LINE
  5
1A0
100
AcDbEntity
  8
平面図
370
               5
  6
Continuous
 62
               7
100
AcDbLine
 10
-7372.8793351226504
 20
-250.53043517606102
 30
0.0
 11
-7817.0275644450403
 21
-1404.2045715152599
 31
0.0
  0
LINE
  5
1A1
100
AcDbEntity
  8
平面図
370
               5
  6
Continuous
 62
               7
100
AcDbLine
 10
-7830.9616476971996
 20
-1440.3983248622799
 30
0.0
 11
-8244.133929627169
 21
-2513.6124998733894
 31
0.0
  0
LINE
  5
1A2
100
AcDbEntity
  8
平面図
370
               5
  6
Continuous
 62
               7
100
AcDbLine
 10
-8244.133929627169
 20
-2513.6124998733894
 30
0.0
 11
-9033.6279759890494
 21
-4564.3217044807798
 31
0.0
  0
LINE
  5
1A3
100
AcDbEntity
  8
平面図
370
               5
  6
Continuous
 62
               7
100
AcDbLine
 10
7380.4325629394998
 20
-250.53043517606102
 30
0.0
 11
7819.3539773773
 21
-1390.62793031818
 31
0.0
  0
LINE
  5
1A4
100
AcDbEntity
  8
平面図
370
               5
  6
Continuous
 62
               7
100
AcDbLine
 10
7838.5148755140999
 20
-1440.3983248622799
 30
0.0
 11
8251.6871574439992
 21
-2513.6124998733894
 31
0.0
  0
LINE
  5
1A5
100
AcDbEntity
  8
平面図
370
               5
  6
Continuous
 62
               7
100
AcDbLine
 10
8251.6871574439992
 20
-2513.6124998733894
 30
0.0
 11
9041.1812038058997
 21
-4564.3217044807798
 31
0.0
  0
LINE
  5
1A6
100
AcDbEntity
  8
平面図
370
               5
  6
Continuous
 62
               7
100
AcDbLine
 10
10458.556562851001
 20
-634.90688810236088
 30
0.0
 11
7782.4427282223996
 21
-634.90688810236088
 31
0.0
  0
LINE
  5
1A7
100
AcDbEntity
  8
平面図
370
               5
  6
Continuous
 62
               7
100
AcDbLine
 10
10458.556562851001
 20
-4334.9068881023604
 30
0.0
 11
9208.5565628510121
 21
-4334.9068881023604
 31
0.0
  0
LINE
  5
1A8
100
AcDbEntity
  8
平面図
370
               5
  6
Continuous
 62
               7
100
AcDbLine
 10
8060.7235199022998
 20
-1353.4128573691405
 30
0.0
 11
7782.9296885176
 21
-631.84393657867986
 31
0.0
  0
LINE
  5
1A9
100
AcDbEntity
  8
平面図
370
               5
  6
Continuous
 62
               7
100
AcDbLine
 10
9208.5565628510121
 20
-4334.9068881023604
 30
0.0
 11
8482.9225563889995
 21
-2450.0740092669703
 31
0.0
  0
LINE
  5
1AA
100
AcDbEntity
  8
平面図
370
               5
  6
Continuous
 62
               7
100
AcDbLine
 10
-10463.2913881145
 20
-633.98439210375
 30
0.0
 11
-7787.1775534858898
 21
-633.98439210375
 31
0.0
  0
LINE
  5
1AB
100
AcDbEntity
  8
平面図
370
               5
  6
Continuous
 62
               7
100
AcDbLine
 10
-10463.2913881145
 20
-4333.98439210375
 30
0.0
 11
-9213.2913881145105
 21
-4333.98439210375
 31
0.0
  0
LINE
  5
1AC
100
AcDbEntity
  8
平面図
370
               5
  6
Continuous
 62
               7
100
AcDbLine
 10
-8068.9233210001103
 20
-1361.49062916208
 30
0.0
 11
-7787.6645137810901
 21
-630.92144058006988
 31
0.0
  0
LINE
  5
1AD
100
AcDbEntity
  8
平面図
370
               5
  6
Continuous
 62
               7
100
AcDbLine
 10
-9213.2913881145105
 20
-4333.98439210375
 30
0.0
 11
-8487.6573816525706
 21
-2449.1515132683598
 31
0.0
  0
MTEXT
  5
1AE
100
AcDbEntity
  8
平面図
 62
               7
100
AcDbMText
 10
6370.4545546186864
 20
13137.207299466205
 30
0.0
 40
262.39999999999998
 41
0.0
 71
               1
 72
               1
  1
　楽　屋　通　路
  7
ＭＳ ゴシック
 73
               1
 44
0.7828267384257843
  0
LINE
  5
1AF
100
AcDbEntity
  8
平面図
370
               5
  6
Continuous
 62
               7
100
AcDbLine
 10
9453.2293435780011
 20
14342.966945154498
 30
0.0
 11
9453.2293435780011
 21
15734.653509833901
 31
0.0
  0
LINE
  5
1B0
100
AcDbEntity
  8
平面図
370
               5
  6
Continuous
 62
               7
100
AcDbLine
 10
7199.5195160019002
 20
14336.5269413842
 30
0.0
 11
7199.5195160019002
 21
15735.886339744498
 31
0.0
  0
LINE
  5
1B1
100
AcDbEntity
  8
平面図
370
               5
  6
Continuous
 62
               7
100
AcDbLine
 10
4949.6339651974004
 20
14336.5269413842
 30
0.0
 11
4949.6339651974004
 21
15735.886339744498
 31
0.0
  0
LINE
  5
1B2
100
AcDbEntity
  8
平面図
370
               5
  6
Continuous
 62
               7
100
AcDbLine
 10
3154.40315808985
 20
14336.5269413842
 30
0.0
 11
3154.40315808985
 21
15735.886339744498
 31
0.0
  0
LINE
  5
1B3
100
AcDbEntity
  8
平面図
370
               5
  6
Continuous
 62
               7
100
AcDbLine
 10
755.04176172409996
 20
14336.5269413842
 30
0.0
 11
755.04176172409996
 21
15735.886339744498
 31
0.0
  0
LINE
  5
1B4
100
AcDbEntity
  8
平面図
370
               5
  6
Continuous
 62
               7
100
AcDbLine
 10
-1242.7279056724899
 20
14336.5269413842
 30
0.0
 11
-1242.7279056724899
 21
15735.886339744498
 31
0.0
  0
LINE
  5
1B5
100
AcDbEntity
  8
平面図
370
               5
  6
Continuous
 62
               7
100
AcDbLine
 10
-2651.3530882179198
 20
14336.5269413842
 30
0.0
 11
-2651.3530882179198
 21
15735.886339744498
 31
0.0
  0
LINE
  5
1B6
100
AcDbEntity
  8
平面図
370
               5
  6
Continuous
 62
               7
100
AcDbLine
 10
-6048.4821539752602
 20
14345.7332532156
 30
0.0
 11
-6048.4821539752602
 21
15745.0926515758
 31
0.0
  0
LINE
  5
1B7
100
AcDbEntity
  8
平面図
370
               5
  6
Continuous
 62
               7
100
AcDbLine
 10
-9452.0763161594405
 20
14345.7332532156
 30
0.0
 11
-9452.0763161594405
 21
15745.0926515758
 31
0.0
  0
LINE
  5
1B8
100
AcDbEntity
  8
平面図
370
               5
  6
Continuous
 62
               7
100
AcDbLine
 10
-15337.084432633401
 20
14345.7332532156
 30
0.0
 11
-15337.084432633401
 21
15745.0926515758
 31
0.0
  0
LINE
  5
1B9
100
AcDbEntity
  8
平面図
370
               5
  6
Continuous
 62
               7
100
AcDbLine
 10
3400.8483761371199
 20
11799.465966032698
 30
0.0
 11
8700.8483761371099
 21
11799.465966032698
 31
0.0
  0
LINE
  5
1BA
100
AcDbEntity
  8
平面図
370
               5
  6
Continuous
 62
               7
100
AcDbLine
 10
0.8483761371207947
 20
11799.465966032698
 30
0.0
 11
1000.84837613712
 21
11799.465966032698
 31
0.0
  0
LINE
  5
1BB
100
AcDbEntity
  8
平面図
370
               5
  6
Continuous
 62
               7
100
AcDbLine
 10
0.8483761371207947
 20
11799.465966032698
 30
0.0
 11
-2649.1516238628801
 21
11799.465966032698
 31
0.0
  0
LINE
  5
1BC
100
AcDbEntity
  8
平面図
370
               5
  6
Continuous
 62
               7
100
AcDbLine
 10
-3350.0
 20
11799.469564823998
 30
0.0
 11
-8650.0
 21
11799.469564823998
 31
0.0
  0
LINE
  5
1BD
100
AcDbEntity
  8
平面図
370
               5
  6
Continuous
 62
               7
100
AcDbLine
 10
-8650.0
 20
11099.469564823999
 30
0.0
 11
-11148.371820177799
 21
11099.469564823999
 31
0.0
  0
LINE
  5
1BE
100
AcDbEntity
  8
平面図
370
               5
  6
Continuous
 62
               7
100
AcDbLine
 10
-14568.3490951268
 20
13074.1243809597
 30
0.0
 11
-15480.085167588899
 21
13074.1243809597
 31
0.0
  0
LINE
  5
1BF
100
AcDbEntity
  8
平面図
370
               5
  6
Continuous
 62
               7
100
AcDbLine
 10
-15480.085167588899
 20
13074.1243809597
 30
0.0
 11
-15190.3074197022
 21
13151.770094490399
 31
0.0
  0
LINE
  5
1C0
100
AcDbEntity
  8
平面図
370
               5
  6
Continuous
 62
               7
100
AcDbLine
 10
-15480.085167588899
 20
13074.1243809597
 30
0.0
 11
-15190.3074197022
 21
12996.478667428899
 31
0.0
  0
MTEXT
  5
1C1
100
AcDbEntity
  8
平面図
 62
               7
100
AcDbMText
 10
-14291.7742157539
 20
13363.449434081907
 30
0.0
 40
262.39999999999998
 41
0.0
 71
               1
 72
               1
  1
楽屋　(1）
  7
ＭＳ ゴシック
 73
               1
 44
0.7828267384257843
  0
MTEXT
  5
1C2
100
AcDbEntity
  8
平面図
 62
               7
100
AcDbMText
 10
-14384.853265448899
 20
13057.785051580606
 30
0.0
 40
262.39999999999998
 41
0.0
 71
               1
 72
               1
  1
シャワー室　へ
  7
ＭＳ ゴシック
 73
               1
 44
0.7828267384257843
  0
MTEXT
  5
1C3
100
AcDbEntity
  8
平面図
 62
               7
100
AcDbMText
 10
-17099.792258883554
 20
15269.183732069163
 30
0.0
 40
262.39999999999998
 41
0.0
 71
               1
 72
               1
  1
楽屋　(1)
  7
ＭＳ ゴシック
 73
               1
 44
0.7828267384257843
  0
MTEXT
  5
1C4
100
AcDbEntity
  8
平面図
 62
               7
100
AcDbMText
 10
-12906.204804345198
 20
15222.820726422808
 30
0.0
 40
262.39999999999998
 41
0.0
 71
               1
 72
               1
  1
楽屋　(2)
  7
ＭＳ ゴシック
 73
               1
 44
0.7828267384257843
  0
MTEXT
  5
1C5
100
AcDbEntity
  8
平面図
 62
               7
100
AcDbMText
 10
-8352.4667296072585
 20
15222.820726422808
 30
0.0
 40
262.39999999999998
 41
0.0
 71
               1
 72
               1
  1
楽屋　(3)
  7
ＭＳ ゴシック
 73
               1
 44
0.7828267384257843
  0
MTEXT
  5
1C6
100
AcDbEntity
  8
平面図
 62
               7
100
AcDbMText
 10
-4860.5959287032902
 20
15222.820726422808
 30
0.0
 40
262.39999999999998
 41
0.0
 71
               1
 72
               1
  1
楽屋　(4)
  7
ＭＳ ゴシック
 73
               1
 44
0.7828267384257843
  0
MTEXT
  5
1C7
100
AcDbEntity
  8
平面図
 62
               7
100
AcDbMText
 10
-2308.0369526517411
 20
15222.820726422808
 30
0.0
 40
262.39999999999998
 41
0.0
 71
               1
 72
               1
  1
W　C
  7
ＭＳ ゴシック
 73
               1
 44
0.7828267384257843
  0
MTEXT
  5
1C8
100
AcDbEntity
  8
平面図
 62
               7
100
AcDbMText
 10
1702.8814496370301
 20
15222.820726422808
 30
0.0
 40
262.39999999999998
 41
0.0
 71
               1
 72
               1
  1
W　C
  7
ＭＳ ゴシック
 73
               1
 44
0.7828267384257843
  0
MTEXT
  5
1C9
100
AcDbEntity
  8
平面図
 62
               7
100
AcDbMText
 10
-929.94275629969138
 20
15222.820726422808
 30
0.0
 40
262.39999999999998
 41
0.0
 71
               1
 72
               1
  1
湯沸し室
  7
ＭＳ ゴシック
 73
               1
 44
0.7828267384257843
  0
MTEXT
  5
1CA
100
AcDbEntity
  8
平面図
 62
               7
100
AcDbMText
 10
7401.2541796149444
 20
15222.820726422808
 30
0.0
 40
262.39999999999998
 41
0.0
 71
               1
 72
               1
  1
楽屋事務室
  7
ＭＳ ゴシック
 73
               1
 44
0.7828267384257843
  0
LINE
  5
1CB
100
AcDbEntity
  8
平面図
370
               5
  6
Continuous
 62
               7
100
AcDbLine
 10
11433.5356465718
 20
11100.3839566936
 30
0.0
 11
11433.5356465718
 21
11251.752133185801
 31
0.0
  0
LINE
  5
1CC
100
AcDbEntity
  8
平面図
370
               5
  6
Continuous
 62
               7
100
AcDbLine
 10
11433.5356465718
 20
11251.752133185801
 30
0.0
 11
10583.5356465718
 21
11251.752133185801
 31
0.0
  0
LINE
  5
1CD
100
AcDbEntity
  8
平面図
370
               5
  6
Continuous
 62
               7
100
AcDbLine
 10
11433.5356465718
 20
11100.3839566936
 30
0.0
 11
10583.5356465718
 21
11100.3839566936
 31
0.0
  0
LINE
  5
1CE
100
AcDbEntity
  8
平面図
370
               5
  6
Continuous
 62
               7
100
AcDbLine
 10
10583.5356465718
 20
11251.752133185801
 30
0.0
 11
10583.5356465718
 21
11100.3839566936
 31
0.0
  0
LINE
  5
1CF
100
AcDbEntity
  8
平面図
370
               5
  6
Continuous
 62
               7
100
AcDbLine
 10
11431.198502809901
 20
14344.681652800598
 30
0.0
 11
11431.198502809901
 21
14496.0498292927
 31
0.0
  0
LINE
  5
1D0
100
AcDbEntity
  8
平面図
370
               5
  6
Continuous
 62
               7
100
AcDbLine
 10
11431.198502809901
 20
14496.0498292927
 30
0.0
 11
10581.198502809901
 21
14496.0498292927
 31
0.0
  0
LINE
  5
1D1
100
AcDbEntity
  8
平面図
370
               5
  6
Continuous
 62
               7
100
AcDbLine
 10
11431.198502809901
 20
14344.681652800598
 30
0.0
 11
10581.198502809901
 21
14344.681652800598
 31
0.0
  0
LINE
  5
1D2
100
AcDbEntity
  8
平面図
370
               5
  6
Continuous
 62
               7
100
AcDbLine
 10
10581.198502809901
 20
14496.0498292927
 30
0.0
 11
10581.198502809901
 21
14344.681652800598
 31
0.0
  0
LINE
  5
1D3
100
AcDbEntity
  8
平面図
370
               5
  6
STYLE_01
 62
               7
100
AcDbLine
 10
9453.8051498419009
 20
14340.539687673598
 30
0.0
 11
10578.975013628202
 21
14340.539687673598
 31
0.0
  0
LINE
  5
1D4
100
AcDbEntity
  8
平面図
370
               5
  6
Continuous
 62
               7
100
AcDbLine
 10
7200.4733944864001
 20
14344.961724333898
 30
0.0
 11
9458.6857616743
 21
14344.961724333898
 31
0.0
  0
LINE
  5
1D5
100
AcDbEntity
  8
平面図
370
               5
  6
STYLE_01
 62
               7
100
AcDbLine
 10
4951.1519316063996
 20
14344.961724333898
 30
0.0
 11
7195.1914178285997
 21
14344.961724333898
 31
0.0
  0
MTEXT
  5
1D6
100
AcDbEntity
  8
平面図
 62
               7
100
AcDbMText
 10
6152.242764505716
 20
14561.007531307569
 30
0.0
 40
200.0
 41
0.0
 71
               1
 72
               1
  1
楽屋入口
  7
ＭＳ ゴシック
 73
               1
 44
0.7828267384257842
  0
LINE
  5
1D7
100
AcDbEntity
  8
平面図
370
               5
  6
Continuous
 62
               7
100
AcDbLine
 10
14599.962637065102
 20
-4493.5174020923096
 30
0.0
 11
14599.962637065102
 21
-5386.4183515140203
 31
0.0
  0
LINE
  5
1D8
100
AcDbEntity
  8
平面図
370
               5
  6
Continuous
 62
               7
100
AcDbLine
 10
14279.272859456101
 20
-4493.5174020923096
 30
0.0
 11
14279.272859456101
 21
-5386.4183515140203
 31
0.0
  0
MTEXT
  5
1D9
100
AcDbEntity
  8
平面図
 62
               7
100
AcDbMText
 10
14679.938420145889
 20
-4796.5000081554799
 30
0.0
 40
200.0
 41
0.0
 71
               1
 72
               1
  1
プロムナード
  7
ＭＳ ゴシック
 73
               1
 44
0.7828267384257842
  0
MTEXT
  5
1DA
100
AcDbEntity
  8
平面図
 62
               7
100
AcDbMText
 10
14803.025006968928
 20
-5014.1037423503403
 30
0.0
 40
200.0
 41
0.0
 71
               1
 72
               1
  1
事　務　室　へ
  7
ＭＳ ゴシック
 73
               1
 44
0.7828267384257842
  0
LINE
  5
1DB
100
AcDbEntity
  8
平面図
370
               5
  6
Continuous
 62
               7
100
AcDbLine
 10
-7229.0854943808899
 20
0.0
 30
0.0
 11
-10699.517406111197
 21
0.0
 31
0.0
  0
LINE
  5
1DC
100
AcDbEntity
  8
平面図
370
               5
  6
Continuous
 62
               7
100
AcDbLine
 10
7228.4197891189997
 20
0.0
 30
0.0
 11
10700.482593888803
 21
0.0
 31
0.0
  0
LINE
  5
1DD
100
AcDbEntity
  8
平面図
370
               5
  6
Continuous
 62
               7
100
AcDbLine
 10
10429.394906952301
 20
4.0553509025303356
 30
0.0
 11
10429.394906952301
 21
634.05535090253215
 31
0.0
  0
LINE
  5
1DE
100
AcDbEntity
  8
平面図
370
               5
  6
Continuous
 62
               7
100
AcDbLine
 10
10429.394906952301
 20
634.05535090253215
 30
0.0
 11
9579.3949069523005
 21
634.05535090253215
 31
0.0
  0
LINE
  5
1DF
100
AcDbEntity
  8
平面図
370
               5
  6
Continuous
 62
               7
100
AcDbLine
 10
9579.3949069523005
 20
634.05535090253215
 30
0.0
 11
9279.3949069523005
 21
634.05535090253215
 31
0.0
  0
LINE
  5
1E0
100
AcDbEntity
  8
平面図
370
               5
  6
Continuous
 62
               7
100
AcDbLine
 10
9279.3949069523005
 20
634.05535090253215
 30
0.0
 11
9279.3949069523005
 21
584.05535090253215
 31
0.0
  0
LINE
  5
1E1
100
AcDbEntity
  8
平面図
370
               5
  6
Continuous
 62
               7
100
AcDbLine
 10
9279.3949069523005
 20
584.05535090253215
 30
0.0
 11
9579.3949069523005
 21
584.05535090253215
 31
0.0
  0
LINE
  5
1E2
100
AcDbEntity
  8
平面図
370
               5
  6
Continuous
 62
               7
100
AcDbLine
 10
9579.3949069523005
 20
584.05535090253215
 30
0.0
 11
9579.3949069523005
 21
4.0553509020392084
 31
0.0
  0
LINE
  5
1E3
100
AcDbEntity
  8
平面図
370
               5
  6
Continuous
 62
               7
100
AcDbLine
 10
-10429.993263672801
 20
0.6450034116605821
 30
0.0
 11
-10429.993263672801
 21
630.64500341165876
 31
0.0
  0
LINE
  5
1E4
100
AcDbEntity
  8
平面図
370
               5
  6
Continuous
 62
               7
100
AcDbLine
 10
-10429.993263672801
 20
630.64500341165876
 30
0.0
 11
-9579.9932636727681
 21
630.64500341165876
 31
0.0
  0
LINE
  5
1E5
100
AcDbEntity
  8
平面図
370
               5
  6
Continuous
 62
               7
100
AcDbLine
 10
-9579.9932636727681
 20
630.64500341165876
 30
0.0
 11
-9279.9932636727681
 21
630.64500341165876
 31
0.0
  0
LINE
  5
1E6
100
AcDbEntity
  8
平面図
370
               5
  6
Continuous
 62
               7
100
AcDbLine
 10
-9279.9932636727681
 20
630.64500341165876
 30
0.0
 11
-9279.9932636727681
 21
580.64500341165876
 31
0.0
  0
LINE
  5
1E7
100
AcDbEntity
  8
平面図
370
               5
  6
Continuous
 62
               7
100
AcDbLine
 10
-9279.9932636727681
 20
580.64500341165876
 30
0.0
 11
-9579.9932636727681
 21
580.64500341165876
 31
0.0
  0
LINE
  5
1E8
100
AcDbEntity
  8
平面図
370
               5
  6
Continuous
 62
               7
100
AcDbLine
 10
-9579.9932636727681
 20
580.64500341165876
 30
0.0
 11
-9579.9932636727681
 21
0.6450034111712739
 31
0.0
  0
LINE
  5
1E9
100
AcDbEntity
  8
平面図
370
               5
  6
Continuous
 62
               7
100
AcDbLine
 10
-8797.3878147443174
 20
0.2694503740403889
 30
0.0
 11
-8797.3878147443174
 21
251.95642879446905
 31
0.0
  0
LINE
  5
1EA
100
AcDbEntity
  8
平面図
370
               5
  6
Continuous
 62
               7
100
AcDbLine
 10
-8797.3878147443174
 20
251.95642879446905
 30
0.0
 11
-9397.4885811636377
 21
251.95642879446905
 31
0.0
  0
LINE
  5
1EB
100
AcDbEntity
  8
平面図
370
               5
  6
Continuous
 62
               7
100
AcDbLine
 10
-9397.4885811636377
 20
251.95642879446905
 30
0.0
 11
-9397.4885811636377
 21
0.2694503735492617
 31
0.0
  0
LINE
  5
1EC
100
AcDbEntity
  8
平面図
370
               5
  6
Continuous
 62
               7
100
AcDbLine
 10
8899.8873537264008
 20
0.2694503740403889
 30
0.0
 11
8899.8873537264008
 21
250.26945037403993
 31
0.0
  0
LINE
  5
1ED
100
AcDbEntity
  8
平面図
370
               5
  6
Continuous
 62
               7
100
AcDbLine
 10
8899.8873537264008
 20
250.26945037403993
 30
0.0
 11
9399.8873537264008
 21
250.26945037403993
 31
0.0
  0
LINE
  5
1EE
100
AcDbEntity
  8
平面図
370
               5
  6
Continuous
 62
               7
100
AcDbLine
 10
9399.8873537264008
 20
250.26945037403993
 30
0.0
 11
9399.8873537264008
 21
2.3740633227116632
 31
0.0
  0
MTEXT
  5
1EF
100
AcDbEntity
  8
平面図
 62
               7
100
AcDbMText
 10
-10484.300468837198
 20
859.90296693326718
 30
0.0
 40
160.0
 41
0.0
 71
               1
 72
               1
  1
トーメンタルタワー
  7
ＭＳ ゴシック
 73
               1
 44
0.7828267384257843
  0
MTEXT
  5
1F0
100
AcDbEntity
  8
平面図
 62
               7
100
AcDbMText
 10
9291.5189999901995
 20
803.03516658136505
 30
0.0
 40
160.0
 41
0.0
 71
               1
 72
               1
  1
トーメンタルタワー
  7
ＭＳ ゴシック
 73
               1
 44
0.7828267384257843
  0
MTEXT
  5
1F1
100
AcDbEntity
  8
平面図
 62
               7
100
AcDbMText
 10
-9558.6361588070504
 20
-71.678270423733466
 30
0.0
 40
160.0
 41
0.0
 71
               1
 72
               1
  1
舞 台 操 作 盤
  7
ＭＳ ゴシック
 73
               1
 44
0.7828267384257843
  0
POLYLINE
  5
1F2
100
AcDbEntity
  8
平面図
370
               5
  6
Continuous
 62
               7
100
AcDb2dPolyline
 66
               1
 10
0.0
 20
0.0
 30
0.0
 70
               1
 75
               5
  0
VERTEX
  5
1F3
100
AcDbEntity
  8
平面図
370
               5
  6
Continuous
 62
               7
100
AcDbVertex
100
AcDb2dVertex
 10
8017.3283681894
 20
-5939.2618053391698
 30
0.0
  0
VERTEX
  5
1F4
100
AcDbEntity
  8
平面図
370
               5
  6
Continuous
 62
               7
100
AcDbVertex
100
AcDb2dVertex
 10
7858.6793162311997
 20
-6000.33944701577
 30
0.0
  0
VERTEX
  5
1F5
100
AcDbEntity
  8
平面図
370
               5
  6
Continuous
 62
               7
100
AcDbVertex
100
AcDb2dVertex
 10
7930.5353652624999
 20
-6186.98539049597
 30
0.0
  0
VERTEX
  5
1F6
100
AcDbEntity
  8
平面図
370
               5
  6
Continuous
 62
               7
100
AcDbVertex
100
AcDb2dVertex
 10
8089.1844172207002
 20
-6125.9077488193607
 30
0.0
  0
SEQEND
  5
1F7
100
AcDbEntity
  8
平面図
370
               5
  6
Continuous
 62
               7
  0
POLYLINE
  5
1F8
100
AcDbEntity
  8
平面図
370
               5
  6
Continuous
 62
               7
100
AcDb2dPolyline
 66
               1
 10
0.0
 20
0.0
 30
0.0
 70
               1
 75
               5
  0
VERTEX
  5
1F9
100
AcDbEntity
  8
平面図
370
               5
  6
Continuous
 62
               7
100
AcDbVertex
100
AcDb2dVertex
 10
8017.3283681894
 20
-5939.2618053391698
 30
0.0
  0
VERTEX
  5
1FA
100
AcDbEntity
  8
平面図
370
               5
  6
Continuous
 62
               7
100
AcDbVertex
100
AcDb2dVertex
 10
7858.6793162311997
 20
-6000.33944701577
 30
0.0
  0
VERTEX
  5
1FB
100
AcDbEntity
  8
平面図
370
               5
  6
Continuous
 62
               7
100
AcDbVertex
100
AcDb2dVertex
 10
7930.5353652624999
 20
-6186.98539049597
 30
0.0
  0
VERTEX
  5
1FC
100
AcDbEntity
  8
平面図
370
               5
  6
Continuous
 62
               7
100
AcDbVertex
100
AcDb2dVertex
 10
8089.1844172207002
 20
-6125.9077488193607
 30
0.0
  0
SEQEND
  5
1FD
100
AcDbEntity
  8
平面図
370
               5
  6
Continuous
 62
               7
  0
POLYLINE
  5
1FE
100
AcDbEntity
  8
平面図
370
               5
  6
Continuous
 62
               7
100
AcDb2dPolyline
 66
               1
 10
0.0
 20
0.0
 30
0.0
 70
               1
 75
               5
  0
VERTEX
  5
1FF
100
AcDbEntity
  8
平面図
370
               5
  6
Continuous
 62
               7
100
AcDbVertex
100
AcDb2dVertex
 10
8017.3283681894
 20
-5939.2618053391698
 30
0.0
  0
VERTEX
  5
200
100
AcDbEntity
  8
平面図
370
               5
  6
Continuous
 62
               7
100
AcDbVertex
100
AcDb2dVertex
 10
7858.6793162311997
 20
-6000.33944701577
 30
0.0
  0
VERTEX
  5
201
100
AcDbEntity
  8
平面図
370
               5
  6
Continuous
 62
               7
100
AcDbVertex
100
AcDb2dVertex
 10
7930.5353652624999
 20
-6186.98539049597
 30
0.0
  0
VERTEX
  5
202
100
AcDbEntity
  8
平面図
370
               5
  6
Continuous
 62
               7
100
AcDbVertex
100
AcDb2dVertex
 10
8089.1844172207002
 20
-6125.9077488193607
 30
0.0
  0
SEQEND
  5
203
100
AcDbEntity
  8
平面図
370
               5
  6
Continuous
 62
               7
  0
POLYLINE
  5
204
100
AcDbEntity
  8
平面図
370
               5
  6
Continuous
 62
               7
100
AcDb2dPolyline
 66
               1
 10
0.0
 20
0.0
 30
0.0
 70
               1
 75
               5
  0
VERTEX
  5
205
100
AcDbEntity
  8
平面図
370
               5
  6
Continuous
 62
               7
100
AcDbVertex
100
AcDb2dVertex
 10
8017.3283681894
 20
-5939.2618053391698
 30
0.0
  0
VERTEX
  5
206
100
AcDbEntity
  8
平面図
370
               5
  6
Continuous
 62
               7
100
AcDbVertex
100
AcDb2dVertex
 10
7858.6793162311997
 20
-6000.33944701577
 30
0.0
  0
VERTEX
  5
207
100
AcDbEntity
  8
平面図
370
               5
  6
Continuous
 62
               7
100
AcDbVertex
100
AcDb2dVertex
 10
7930.5353652624999
 20
-6186.98539049597
 30
0.0
  0
VERTEX
  5
208
100
AcDbEntity
  8
平面図
370
               5
  6
Continuous
 62
               7
100
AcDbVertex
100
AcDb2dVertex
 10
8089.1844172207002
 20
-6125.9077488193607
 30
0.0
  0
SEQEND
  5
209
100
AcDbEntity
  8
平面図
370
               5
  6
Continuous
 62
               7
  0
POLYLINE
  5
20A
100
AcDbEntity
  8
平面図
370
               5
  6
Continuous
 62
               7
100
AcDb2dPolyline
 66
               1
 10
0.0
 20
0.0
 30
0.0
 70
               1
 75
               5
  0
VERTEX
  5
20B
100
AcDbEntity
  8
平面図
370
               5
  6
Continuous
 62
               7
100
AcDbVertex
100
AcDb2dVertex
 10
8017.3283681894
 20
-5939.2618053391698
 30
0.0
  0
VERTEX
  5
20C
100
AcDbEntity
  8
平面図
370
               5
  6
Continuous
 62
               7
100
AcDbVertex
100
AcDb2dVertex
 10
7858.6793162311997
 20
-6000.33944701577
 30
0.0
  0
VERTEX
  5
20D
100
AcDbEntity
  8
平面図
370
               5
  6
Continuous
 62
               7
100
AcDbVertex
100
AcDb2dVertex
 10
7930.5353652624999
 20
-6186.98539049597
 30
0.0
  0
VERTEX
  5
20E
100
AcDbEntity
  8
平面図
370
               5
  6
Continuous
 62
               7
100
AcDbVertex
100
AcDb2dVertex
 10
8089.1844172207002
 20
-6125.9077488193607
 30
0.0
  0
SEQEND
  5
20F
100
AcDbEntity
  8
平面図
370
               5
  6
Continuous
 62
               7
  0
POLYLINE
  5
210
100
AcDbEntity
  8
平面図
370
               5
  6
Continuous
 62
               7
100
AcDb2dPolyline
 66
               1
 10
0.0
 20
0.0
 30
0.0
 70
               1
 75
               5
  0
VERTEX
  5
211
100
AcDbEntity
  8
平面図
370
               5
  6
Continuous
 62
               7
100
AcDbVertex
100
AcDb2dVertex
 10
8017.3283681894
 20
-5939.2618053391698
 30
0.0
  0
VERTEX
  5
212
100
AcDbEntity
  8
平面図
370
               5
  6
Continuous
 62
               7
100
AcDbVertex
100
AcDb2dVertex
 10
7858.6793162311997
 20
-6000.33944701577
 30
0.0
  0
VERTEX
  5
213
100
AcDbEntity
  8
平面図
370
               5
  6
Continuous
 62
               7
100
AcDbVertex
100
AcDb2dVertex
 10
7930.5353652624999
 20
-6186.98539049597
 30
0.0
  0
VERTEX
  5
214
100
AcDbEntity
  8
平面図
370
               5
  6
Continuous
 62
               7
100
AcDbVertex
100
AcDb2dVertex
 10
8089.1844172207002
 20
-6125.9077488193607
 30
0.0
  0
SEQEND
  5
215
100
AcDbEntity
  8
平面図
370
               5
  6
Continuous
 62
               7
  0
POLYLINE
  5
216
100
AcDbEntity
  8
平面図
370
               5
  6
Continuous
 62
               7
100
AcDb2dPolyline
 66
               1
 10
0.0
 20
0.0
 30
0.0
 70
               1
 75
               5
  0
VERTEX
  5
217
100
AcDbEntity
  8
平面図
370
               5
  6
Continuous
 62
               7
100
AcDbVertex
100
AcDb2dVertex
 10
8017.3283681894
 20
-5939.2618053391698
 30
0.0
  0
VERTEX
  5
218
100
AcDbEntity
  8
平面図
370
               5
  6
Continuous
 62
               7
100
AcDbVertex
100
AcDb2dVertex
 10
7858.6793162311997
 20
-6000.33944701577
 30
0.0
  0
VERTEX
  5
219
100
AcDbEntity
  8
平面図
370
               5
  6
Continuous
 62
               7
100
AcDbVertex
100
AcDb2dVertex
 10
7930.5353652624999
 20
-6186.98539049597
 30
0.0
  0
VERTEX
  5
21A
100
AcDbEntity
  8
平面図
370
               5
  6
Continuous
 62
               7
100
AcDbVertex
100
AcDb2dVertex
 10
8089.1844172207002
 20
-6125.9077488193607
 30
0.0
  0
SEQEND
  5
21B
100
AcDbEntity
  8
平面図
370
               5
  6
Continuous
 62
               7
  0
POLYLINE
  5
21C
100
AcDbEntity
  8
平面図
370
               5
  6
Continuous
 62
               7
100
AcDb2dPolyline
 66
               1
 10
0.0
 20
0.0
 30
0.0
 70
               1
 75
               5
  0
VERTEX
  5
21D
100
AcDbEntity
  8
平面図
370
               5
  6
Continuous
 62
               7
100
AcDbVertex
100
AcDb2dVertex
 10
8017.3283681894
 20
-5939.2618053391698
 30
0.0
  0
VERTEX
  5
21E
100
AcDbEntity
  8
平面図
370
               5
  6
Continuous
 62
               7
100
AcDbVertex
100
AcDb2dVertex
 10
7858.6793162311997
 20
-6000.33944701577
 30
0.0
  0
VERTEX
  5
21F
100
AcDbEntity
  8
平面図
370
               5
  6
Continuous
 62
               7
100
AcDbVertex
100
AcDb2dVertex
 10
7930.5353652624999
 20
-6186.98539049597
 30
0.0
  0
VERTEX
  5
220
100
AcDbEntity
  8
平面図
370
               5
  6
Continuous
 62
               7
100
AcDbVertex
100
AcDb2dVertex
 10
8089.1844172207002
 20
-6125.9077488193607
 30
0.0
  0
SEQEND
  5
221
100
AcDbEntity
  8
平面図
370
               5
  6
Continuous
 62
               7
  0
POLYLINE
  5
222
100
AcDbEntity
  8
平面図
370
               5
  6
Continuous
 62
               7
100
AcDb2dPolyline
 66
               1
 10
0.0
 20
0.0
 30
0.0
 70
               1
 75
               5
  0
VERTEX
  5
223
100
AcDbEntity
  8
平面図
370
               5
  6
Continuous
 62
               7
100
AcDbVertex
100
AcDb2dVertex
 10
8017.3283681894
 20
-5939.2618053391698
 30
0.0
  0
VERTEX
  5
224
100
AcDbEntity
  8
平面図
370
               5
  6
Continuous
 62
               7
100
AcDbVertex
100
AcDb2dVertex
 10
7858.6793162311997
 20
-6000.33944701577
 30
0.0
  0
VERTEX
  5
225
100
AcDbEntity
  8
平面図
370
               5
  6
Continuous
 62
               7
100
AcDbVertex
100
AcDb2dVertex
 10
7930.5353652624999
 20
-6186.98539049597
 30
0.0
  0
VERTEX
  5
226
100
AcDbEntity
  8
平面図
370
               5
  6
Continuous
 62
               7
100
AcDbVertex
100
AcDb2dVertex
 10
8089.1844172207002
 20
-6125.9077488193607
 30
0.0
  0
SEQEND
  5
227
100
AcDbEntity
  8
平面図
370
               5
  6
Continuous
 62
               7
  0
POLYLINE
  5
228
100
AcDbEntity
  8
平面図
370
               5
  6
Continuous
 62
               7
100
AcDb2dPolyline
 66
               1
 10
0.0
 20
0.0
 30
0.0
 70
               1
 75
               5
  0
VERTEX
  5
229
100
AcDbEntity
  8
平面図
370
               5
  6
Continuous
 62
               7
100
AcDbVertex
100
AcDb2dVertex
 10
8017.3283681894
 20
-5939.2618053391698
 30
0.0
  0
VERTEX
  5
22A
100
AcDbEntity
  8
平面図
370
               5
  6
Continuous
 62
               7
100
AcDbVertex
100
AcDb2dVertex
 10
7858.6793162311997
 20
-6000.33944701577
 30
0.0
  0
VERTEX
  5
22B
100
AcDbEntity
  8
平面図
370
               5
  6
Continuous
 62
               7
100
AcDbVertex
100
AcDb2dVertex
 10
7930.5353652624999
 20
-6186.98539049597
 30
0.0
  0
VERTEX
  5
22C
100
AcDbEntity
  8
平面図
370
               5
  6
Continuous
 62
               7
100
AcDbVertex
100
AcDb2dVertex
 10
8089.1844172207002
 20
-6125.9077488193607
 30
0.0
  0
SEQEND
  5
22D
100
AcDbEntity
  8
平面図
370
               5
  6
Continuous
 62
               7
  0
MTEXT
  5
22E
100
AcDbEntity
  8
平面図
 62
               7
100
AcDbMText
 10
-6773.0652639708351
 20
-7826.3309443547305
 30
0.0
 40
488.65234375000006
 41
0.0
 71
               1
 72
               1
  1
高知市春野文化ホール　ピアステージ 大ホール
  7
ＭＳ ゴシック
 73
               1
 44
0.7828267384257843
  0
MTEXT
  5
22F
100
AcDbEntity
  8
平面図
 62
               7
100
AcDbMText
 10
-6735.838171531298
 20
-8558.2024362355587
 30
0.0
 40
320.0
 41
0.0
 71
               1
 72
               1
  1
〒　781-0304　高知県高知市春野町西分340番地
  7
ＭＳ ゴシック
 73
               1
 44
0.7828267384257843
  0
MTEXT
  5
230
100
AcDbEntity
  8
平面図
 62
               7
100
AcDbMText
 10
-6651.6460058010252
 20
-9023.0126340850002
 30
0.0
 40
320.0
 41
0.0
 71
               1
 72
               1
  1
TEL（088）894-6767　　　FAX（088）894-6760
  7
ＭＳ ゴシック
 73
               1
 44
0.7828267384257843
  0
POLYLINE
  5
231
100
AcDbEntity
  8
平面図
370
               5
  6
Continuous
 62
               7
100
AcDb2dPolyline
 66
               1
 10
0.0
 20
0.0
 30
0.0
 70
               1
 75
               5
  0
VERTEX
  5
232
100
AcDbEntity
  8
平面図
370
               5
  6
Continuous
 62
               7
100
AcDbVertex
100
AcDb2dVertex
 10
-7989.7900925948097
 20
-5952.9409228210488
 30
0.0
  0
VERTEX
  5
233
100
AcDbEntity
  8
平面図
370
               5
  6
Continuous
 62
               7
100
AcDbVertex
100
AcDb2dVertex
 10
-7831.1410406366504
 20
-6014.01856449766
 30
0.0
  0
VERTEX
  5
234
100
AcDbEntity
  8
平面図
370
               5
  6
Continuous
 62
               7
100
AcDbVertex
100
AcDb2dVertex
 10
-7902.9970896679497
 20
-6200.6645079778491
 30
0.0
  0
VERTEX
  5
235
100
AcDbEntity
  8
平面図
370
               5
  6
Continuous
 62
               7
100
AcDbVertex
100
AcDb2dVertex
 10
-8061.64614162612
 20
-6139.5868663012507
 30
0.0
  0
SEQEND
  5
236
100
AcDbEntity
  8
平面図
370
               5
  6
Continuous
 62
               7
  0
LINE
  5
237
100
AcDbEntity
  8
平面図
370
               5
  6
Continuous
 62
               7
100
AcDbLine
 10
3400.0
 20
11099.469564823999
 30
0.0
 11
2680.0
 21
11099.469564823999
 31
0.0
  0
LINE
  5
238
100
AcDbEntity
  8
平面図
370
               5
  6
Continuous
 62
               7
100
AcDbLine
 10
2680.0
 20
11099.469564823999
 30
0.0
 11
2680.0
 21
11399.469564823998
 31
0.0
  0
LINE
  5
239
100
AcDbEntity
  8
平面図
370
               5
  6
Continuous
 62
               7
100
AcDbLine
 10
2680.0
 20
11399.469564823998
 30
0.0
 11
999.15160859696005
 21
11399.469564823998
 31
0.0
  0
LINE
  5
23A
100
AcDbEntity
  8
平面図
370
               5
  6
Continuous
 62
               7
100
AcDbLine
 10
9455.9821884344092
 20
11244.8792913536
 30
0.0
 11
9454.8367245049012
 21
12049.4686020878
 31
0.0
  0
LINE
  5
23B
100
AcDbEntity
  8
平面図
370
               5
  6
Continuous
 62
               7
100
AcDbLine
 10
999.15160859696005
 20
11399.469564823998
 30
0.0
 11
1000.84837613712
 21
11799.465966032698
 31
0.0
  0
LINE
  5
23C
100
AcDbEntity
  8
平面図
370
               5
  6
Continuous
 62
               7
100
AcDbLine
 10
3400.8483761371199
 20
11799.465966032698
 30
0.0
 11
3400.0
 21
11099.469564823999
 31
0.0
  0
LINE
  5
23D
100
AcDbEntity
  8
平面図
370
               5
  6
Continuous
 62
               7
100
AcDbLine
 10
-2650.0
 20
11099.469564823999
 30
0.0
 11
-2649.1516238628801
 21
11799.465966032698
 31
0.0
  0
LINE
  5
23E
100
AcDbEntity
  8
平面図
370
               5
  6
Continuous
 62
               7
100
AcDbLine
 10
-3350.0
 20
11099.469564823999
 30
0.0
 11
-3350.0
 21
11799.469564823998
 31
0.0
  0
LINE
  5
23F
100
AcDbEntity
  8
平面図
370
               5
  6
Continuous
 62
               7
100
AcDbLine
 10
11433.5356465718
 20
11100.3839566936
 30
0.0
 11
11433.5356465718
 21
9510.3839566935803
 31
0.0
  0
LINE
  5
240
100
AcDbEntity
  8
平面図
370
               5
  6
Continuous
 62
               7
100
AcDbLine
 10
14623.2717048218
 20
11104.6662878447
 30
0.0
 11
14623.2717048218
 21
9514.6662878446805
 31
0.0
  0
ARC
  5
241
100
AcDbEntity
  8
平面図
370
               5
  6
Continuous
 62
               7
100
AcDbCircle
 10
11433.5356465718
 20
11100.3839566936
 30
0.0
 40
1590.0
100
AcDbArc
 50
270.0
 51
359.97180041376231
  0
ARC
  5
242
100
AcDbEntity
  8
平面図
370
               5
  6
Continuous
 62
               7
100
AcDbCircle
 10
14612.841489117302
 20
11104.6662878447
 30
0.0
 40
1589.3141056428697
100
AcDbArc
 50
180.18259281278497
 51
270.37584828138648
  0
LINE
  5
243
100
AcDbEntity
  8
平面図
370
               5
  6
Continuous
 62
               7
100
AcDbLine
 10
11431.198502809901
 20
14344.681652800598
 30
0.0
 11
11431.198502809901
 21
15934.681652800598
 31
0.0
  0
ARC
  5
244
100
AcDbEntity
  8
平面図
370
               5
  6
Continuous
 62
               7
100
AcDbCircle
 10
11431.198502809901
 20
14344.681652800598
 30
0.0
 40
1592.022435199731
100
AcDbArc
 50
0.3886643635523774
 51
90.0
  0
ARC
  5
245
100
AcDbEntity
  8
平面図
370
               5
  6
Continuous
 62
               7
100
AcDbCircle
 10
14626.0402844946
 20
14340.5911867002
 30
0.0
 40
1590.0
100
AcDbArc
 50
90.0
 51
179.46776281899503
  0
MTEXT
  5
246
100
AcDbEntity
  8
平面図
 62
               7
100
AcDbMText
 10
13207.039426452469
 20
14672.679754976234
 30
0.0
 40
217.17881944444446
 41
0.0
 71
               1
 72
               1
  1
搬　入　口
  7
ＭＳ ゴシック
 73
               1
 44
0.7828267384257843
  0
LINE
  5
247
100
AcDbEntity
  8
平面図
370
               5
  6
Continuous
 62
               7
100
AcDbLine
 10
14603.426287972499
 20
0.0
 30
0.0
 11
14603.426287972499
 21
-150.0
 31
0.0
  0
LINE
  5
248
100
AcDbEntity
  8
平面図
370
               5
  6
Continuous
 62
               7
100
AcDbLine
 10
12393.856807824301
 20
6.200486977420951
 30
0.0
 11
12393.856807824301
 21
-4493.79951302259
 31
0.0
  0
LINE
  5
249
100
AcDbEntity
  8
平面図
370
               5
  6
Continuous
 62
               7
100
AcDbLine
 10
12707.422632308502
 20
-130.51237573174876
 30
0.0
 11
12707.422632308502
 21
4.2733578517800197
 31
0.0
  0
ARC
  5
24A
100
AcDbEntity
  8
平面図
370
               5
  6
Continuous
 62
               7
100
AcDbCircle
 10
-12236.642222324797
 20
-4865.59443605668
 30
0.0
 40
856.85975137265166
100
AcDbArc
 50
269.89517908217493
 51
0.0
  0
ARC
  5
24B
100
AcDbEntity
  8
平面図
370
               5
  6
Continuous
 62
               7
100
AcDbCircle
 10
-12239.7941803125
 20
-6575.0392328452608
 30
0.0
 40
850.0
100
AcDbArc
 50
0.0
 51
89.893527504690667
  0
ARC
  5
24C
100
AcDbEntity
  8
平面図
370
               5
  6
Continuous
 62
               7
100
AcDbCircle
 10
13146.834494274703
 20
-5393.7995130225891
 30
0.0
 40
793.92335386973764
100
AcDbArc
 50
1.4448129041311786
 51
89.115086824131197
  0
LINE
  5
24D
100
AcDbEntity
  8
平面図
370
               5
  6
Continuous
 62
               7
100
AcDbLine
 10
13148.839606939
 20
-5374.4383634993601
 30
0.0
 11
13934.398057030401
 21
-5374.4383634993601
 31
0.0
  0
LINE
  5
24E
100
AcDbEntity
  8
平面図
370
               5
  6
Continuous
 62
               7
100
AcDbLine
 10
15301.187215565602
 20
-4598.56169604549
 30
0.0
 11
15448.837961110999
 21
-4598.56169604549
 31
0.0
  0
LINE
  5
24F
100
AcDbEntity
  8
平面図
370
               5
  6
Continuous
 62
               7
100
AcDbLine
 10
15448.837961110999
 20
-4598.56169604549
 30
0.0
 11
15448.837961110999
 21
-4491.4531504046399
 31
0.0
  0
LINE
  5
250
100
AcDbEntity
  8
平面図
370
               5
  6
Continuous
 62
               7
100
AcDbLine
 10
15302.3599871021
 20
-4599.2447274219203
 30
0.0
 11
15302.3599871021
 21
-4498.6392555391603
 31
0.0
  0
LINE
  5
251
100
AcDbEntity
  8
平面図
370
               5
  6
Continuous
 62
               7
100
AcDbLine
 10
15446.699616326099
 20
-5385.6754077813903
 30
0.0
 11
16228.699616326099
 21
-5385.6754077813903
 31
0.0
  0
LINE
  5
252
100
AcDbEntity
  8
平面図
370
               5
  6
Continuous
 62
               7
100
AcDbLine
 10
10580.867047182302
 20
11099.469564823999
 30
0.0
 11
10580.867047182302
 21
10045.469564823999
 31
0.0
  0
ARC
  5
253
100
AcDbEntity
  8
平面図
370
               5
  6
Continuous
 62
               7
100
AcDbCircle
 10
10580.867047182302
 20
11099.469564823999
 30
0.0
 40
1054.0
100
AcDbArc
 50
180.0
 51
270.0
  0
LINE
  5
254
100
AcDbEntity
  8
平面図
370
               5
  6
Continuous
 62
               7
100
AcDbLine
 10
-12949.085841130298
 20
11099.469564823999
 30
0.0
 11
-12949.085841130298
 21
10199.469564823999
 31
0.0
  0
LINE
  5
255
100
AcDbEntity
  8
平面図
370
               5
  6
Continuous
 62
               7
100
AcDbLine
 10
-11144.767517711698
 20
11099.825655409601
 30
0.0
 11
-11144.767517711698
 21
10199.825655409601
 31
0.0
  0
ARC
  5
256
100
AcDbEntity
  8
平面図
370
               5
  6
Continuous
 62
               7
100
AcDbCircle
 10
-12949.085841130298
 20
11099.469564823999
 30
0.0
 40
900.0
100
AcDbArc
 50
270.0
 51
359.24717591799811
  0
ARC
  5
257
100
AcDbEntity
  8
平面図
370
               5
  6
Continuous
 62
               7
100
AcDbCircle
 10
-11144.767517711698
 20
11099.469564823999
 30
0.0
 40
904.47331304140369
100
AcDbArc
 50
180.74910057782694
 51
270.0
  0
ARC
  5
258
100
AcDbEntity
  8
平面図
370
               5
  6
Continuous
 62
               7
100
AcDbCircle
 10
4951.1519316063996
 20
14344.961724333898
 30
0.0
 40
1136.6589990920595
100
AcDbArc
 50
0.9064736474887158
 51
89.116722631067006
  0
ARC
  5
259
100
AcDbEntity
  8
平面図
370
               5
  6
Continuous
 62
               7
100
AcDbCircle
 10
7195.1914178285997
 20
14344.961724333898
 30
0.0
 40
1112.1873572038292
100
AcDbArc
 50
89.873198432924667
 51
179.57125390766288
  0
MTEXT
  5
25A
100
AcDbEntity
  8
平面図
 62
               7
100
AcDbMText
 10
-15017.497595623299
 20
3258.6249448308204
 30
0.0
 40
162.88411458333334
 41
0.0
 71
               1
 72
               1
  1
BL2・スクリーン
  7
ＭＳ ゴシック
 73
               1
 44
0.7828267384257843
  0
MTEXT
  5
25B
100
AcDbEntity
  8
平面図
 62
               7
100
AcDbMText
 10
12592.023124338535
 20
14278.765316858531
 30
0.0
 40
217.17881944444446
 41
0.0
 71
               1
 72
               1
  1
W3,150×H3,000
  7
ＭＳ ゴシック
 73
               1
 44
0.7828267384257843
  0
MTEXT
  5
25C
100
AcDbEntity
  8
平面図
 62
               7
100
AcDbMText
 10
11597.734025245667
 20
14012.228960913533
 30
0.0
 40
217.17881944444446
 41
0.0
 71
               1
 72
               1
  1
プラットホーム高　960
  7
ＭＳ ゴシック
 73
               1
 44
0.7828267384257843
  0
MTEXT
  5
25D
100
AcDbEntity
  8
平面図
 62
               7
100
AcDbMText
 10
12597.956046141466
 20
11421.756716860731
 30
0.0
 40
217.17881944444446
 41
0.0
 71
               1
 72
               1
  1
W3,150×H3,000
  7
ＭＳ ゴシック
 73
               1
 44
0.7828267384257843
  0
LINE
  5
25E
100
AcDbEntity
  8
平面図
370
               5
  6
Continuous
 62
               7
100
AcDbLine
 10
12709.036563862501
 20
-127.4194331205108
 30
0.0
 11
12589.793819586401
 21
-127.4194331205108
 31
0.0
  0
LINE
  5
25F
100
AcDbEntity
  8
平面図
370
               5
  6
STYLE_01
 62
               7
100
AcDbLine
 10
10704.007963009
 20
-1873.2190782765201
 30
0.0
 11
10704.007963009
 21
-2823.2190782765201
 31
0.0
  0
LINE
  5
260
100
AcDbEntity
  8
平面図
370
               5
  6
Continuous
 62
               7
100
AcDbLine
 10
10703.364505219102
 20
-4611.4163047648399
 30
0.0
 11
10703.364505219102
 21
-2860.9325526166094
 31
0.0
  0
LINE
  5
261
100
AcDbEntity
  8
平面図
370
               5
  6
Continuous
 62
               7
100
AcDbLine
 10
10702.668238898303
 20
-1875.7678414095999
 30
0.0
 11
11652.668238898303
 21
-1875.7678414095999
 31
0.0
  0
ARC
  5
262
100
AcDbEntity
  8
平面図
370
               5
  6
Continuous
 62
               7
100
AcDbCircle
 10
10702.668238898303
 20
-1875.7678414095999
 30
0.0
 40
947.45218407122945
100
AcDbArc
 50
270.08101787523088
 51
0.0
  0
LINE
  5
263
100
AcDbEntity
  8
平面図
370
               5
  6
Continuous
 62
               7
100
AcDbLine
 10
-10699.517406111197
 20
0.0
 30
0.0
 11
-10699.517406111197
 21
-1860.94856202967
 31
0.0
  0
LINE
  5
264
100
AcDbEntity
  8
平面図
370
               5
  6
STYLE_01
 62
               7
100
AcDbLine
 10
-10696.454735192197
 20
-1873.2190782765201
 30
0.0
 11
-10696.454735192197
 21
-2823.2190782765201
 31
0.0
  0
LINE
  5
265
100
AcDbEntity
  8
平面図
370
               5
  6
Continuous
 62
               7
100
AcDbLine
 10
-10695.811277402197
 20
-4611.4163047648299
 30
0.0
 11
-10695.811277402197
 21
-2860.9325526166094
 31
0.0
  0
LINE
  5
266
100
AcDbEntity
  8
平面図
370
               5
  6
Continuous
 62
               7
100
AcDbLine
 10
-10695.1150110815
 20
-1875.7678414095999
 30
0.0
 11
-11645.1150110815
 21
-1875.7678414095999
 31
0.0
  0
ARC
  5
267
100
AcDbEntity
  8
平面図
370
               5
  6
Continuous
 62
               7
100
AcDbCircle
 10
-10695.1150110815
 20
-1875.7678414095999
 30
0.0
 40
947.45218407122957
100
AcDbArc
 50
180.0
 51
269.91898212476917
  0
LINE
  5
268
100
AcDbEntity
  8
平面図
370
               5
  6
Continuous
 62
               7
100
AcDbLine
 10
-10463.2913881145
 20
-633.98439210375
 30
0.0
 11
-10463.2913881145
 21
-1877.7069697554498
 31
0.0
  0
LINE
  5
269
100
AcDbEntity
  8
平面図
370
               5
  6
Continuous
 62
               7
100
AcDbLine
 10
-10463.2913881145
 20
-4333.98439210375
 30
0.0
 11
-10463.2913881145
 21
-2821.1076704071002
 31
0.0
  0
LINE
  5
26A
100
AcDbEntity
  8
平面図
370
               5
  6
STYLE_01
 62
               7
100
AcDbLine
 10
-10462.6243682852
 20
-1901.3181708311504
 30
0.0
 11
-10462.6243682852
 21
-2795.1271152490099
 31
0.0
  0
LINE
  5
26B
100
AcDbEntity
  8
平面図
370
               5
  6
Continuous
 62
               7
100
AcDbLine
 10
10458.556562851001
 20
-634.90688810236088
 30
0.0
 11
10458.556562851001
 21
-1878.6294657540502
 31
0.0
  0
LINE
  5
26C
100
AcDbEntity
  8
平面図
370
               5
  6
Continuous
 62
               7
100
AcDbLine
 10
10458.556562851001
 20
-4334.9068881023604
 30
0.0
 11
10458.556562851001
 21
-2822.0301664057106
 31
0.0
  0
LINE
  5
26D
100
AcDbEntity
  8
平面図
370
               5
  6
STYLE_01
 62
               7
100
AcDbLine
 10
10459.223582680301
 20
-1902.2406668297599
 30
0.0
 11
10459.223582680301
 21
-2796.0496112476203
 31
0.0
  0
LINE
  5
26E
100
AcDbEntity
  8
平面図
370
               5
  6
Continuous
 62
               7
100
AcDbLine
 10
8927.6463963609021
 20
-1595.79911247785
 30
0.0
 11
8399.3044512614997
 21
-1136.6098388133096
 31
0.0
  0
LINE
  5
26F
100
AcDbEntity
  8
平面図
370
               5
  6
Continuous
 62
               7
100
AcDbLine
 10
8927.6463963609021
 20
-1595.79911247785
 30
0.0
 11
8599.6540580291003
 21
-1973.1862161202898
 31
0.0
  0
LINE
  5
270
100
AcDbEntity
  8
平面図
370
               5
  6
Continuous
 62
               7
100
AcDbLine
 10
8399.3044512614997
 20
-1136.6098388133096
 30
0.0
 11
8071.3121129296997
 21
-1513.9969424557503
 31
0.0
  0
LINE
  5
271
100
AcDbEntity
  8
平面図
370
               5
  6
Continuous
 62
               7
100
AcDbLine
 10
8599.6540580291003
 20
-1973.1862161202898
 30
0.0
 11
8071.3121129296997
 21
-1513.9969424557503
 31
0.0
  0
LINE
  5
272
100
AcDbEntity
  8
平面図
370
               5
  6
Continuous
 62
               7
100
AcDbLine
 10
-8932.1107757194477
 20
-1598.96049130543
 30
0.0
 11
-8403.7688306200289
 21
-1139.7712176408904
 31
0.0
  0
LINE
  5
273
100
AcDbEntity
  8
平面図
370
               5
  6
Continuous
 62
               7
100
AcDbLine
 10
-8932.1107757194477
 20
-1598.96049130543
 30
0.0
 11
-8604.1184373876276
 21
-1976.3475949478698
 31
0.0
  0
LINE
  5
274
100
AcDbEntity
  8
平面図
370
               5
  6
Continuous
 62
               7
100
AcDbLine
 10
-8403.7688306200289
 20
-1139.7712176408904
 30
0.0
 11
-8075.7764922882207
 21
-1517.1583212833302
 31
0.0
  0
LINE
  5
275
100
AcDbEntity
  8
平面図
370
               5
  6
Continuous
 62
               7
100
AcDbLine
 10
-8604.1184373876276
 20
-1976.3475949478698
 30
0.0
 11
-8075.7764922882207
 21
-1517.1583212833302
 31
0.0
  0
LINE
  5
276
100
AcDbEntity
  8
平面図
370
               5
  6
Continuous
 62
               7
100
AcDbLine
 10
-12949.085841130298
 20
11099.469564823999
 30
0.0
 11
-12949.085841130298
 21
11299.469564823999
 31
0.0
  0
LINE
  5
277
100
AcDbEntity
  8
平面図
370
               5
  6
Continuous
 62
               7
100
AcDbLine
 10
-11144.548076040897
 20
11101.893874466001
 30
0.0
 11
-11144.548076040897
 21
11301.893874466001
 31
0.0
  0
LINE
  5
278
100
AcDbEntity
  8
平面図
370
               5
  6
Continuous
 62
               7
100
AcDbLine
 10
-14749.085841130298
 20
11299.469564823999
 30
0.0
 11
-14749.085841130298
 21
11999.469564823998
 31
0.0
  0
LINE
  5
279
100
AcDbEntity
  8
平面図
370
               5
  6
Continuous
 62
               7
100
AcDbLine
 10
-14749.085841130298
 20
11999.469564823998
 30
0.0
 11
-15449.2838439179
 21
11999.469564823998
 31
0.0
  0
LINE
  5
27A
100
AcDbEntity
  8
平面図
370
               5
  6
Continuous
 62
               7
100
AcDbLine
 10
15098.255143504903
 20
5804.6662878446796
 30
0.0
 11
14398.255143504903
 21
5804.6662878446796
 31
0.0
  0
LINE
  5
27B
100
AcDbEntity
  8
平面図
370
               5
  6
Continuous
 62
               7
100
AcDbLine
 10
15102.686882505302
 20
6504.6662878446796
 30
0.0
 11
14402.686882505302
 21
6504.6662878446796
 31
0.0
  0
LINE
  5
27C
100
AcDbEntity
  8
平面図
370
               5
  6
Continuous
 62
               7
100
AcDbLine
 10
14402.686882505302
 20
6504.6662878446796
 30
0.0
 11
14402.686882505302
 21
5804.6662878446796
 31
0.0
  0
LINE
  5
27D
100
AcDbEntity
  8
平面図
370
               5
  6
Continuous
 62
               7
100
AcDbLine
 10
12403.426287972499
 20
0.0
 30
0.0
 11
12703.426287972499
 21
0.0
 31
0.0
  0
LINE
  5
27E
100
AcDbEntity
  8
平面図
370
               5
  6
STYLE_01
 62
               7
100
AcDbLine
 10
12703.426287972499
 20
0.0
 30
0.0
 11
14603.426287972499
 21
0.0
 31
0.0
  0
LINE
  5
27F
100
AcDbEntity
  8
平面図
370
               5
  6
Continuous
 62
               7
100
AcDbLine
 10
12707.422632308502
 20
4.2733578517800197
 30
0.0
 11
12707.422632308502
 21
954.27335785178002
 31
0.0
  0
LINE
  5
280
100
AcDbEntity
  8
平面図
370
               5
  6
Continuous
 62
               7
100
AcDbLine
 10
14603.426287972499
 20
0.0
 30
0.0
 11
14603.426287972499
 21
950.0
 31
0.0
  0
ARC
  5
281
100
AcDbEntity
  8
平面図
370
               5
  6
Continuous
 62
               7
100
AcDbCircle
 10
12707.422632308502
 20
4.2733578517800197
 30
0.0
 40
951.5377661196095
100
AcDbArc
 50
359.59691930794861
 51
89.912284138187559
  0
ARC
  5
282
100
AcDbEntity
  8
平面図
370
               5
  6
Continuous
 62
               7
100
AcDbCircle
 10
14603.426287972499
 20
0.0
 30
0.0
 40
950.0
100
AcDbArc
 50
90.0
 51
179.84218510882397
  0
LINE
  5
283
100
AcDbEntity
  8
平面図
370
               5
  6
Continuous
 62
               7
100
AcDbLine
 10
14603.426287972499
 20
0.0
 30
0.0
 11
14603.426287972499
 21
180.0
 31
0.0
  0
LINE
  5
284
100
AcDbEntity
  8
平面図
370
               5
  6
Continuous
 62
               7
100
AcDbLine
 10
14603.426287972499
 20
180.0
 30
0.0
 11
15096.8171795704
 21
180.0
 31
0.0
  0
LINE
  5
285
100
AcDbEntity
  8
平面図
370
               5
  6
Continuous
 62
               7
100
AcDbLine
 10
-12236.568193688399
 20
-3713.5075467991001
 30
0.0
 11
-12036.568193688399
 21
-3713.5075467991001
 31
0.0
  0
LINE
  5
286
100
AcDbEntity
  8
平面図
370
               5
  6
Continuous
 62
               7
100
AcDbLine
 10
-12036.568193688399
 20
-3713.5075467991001
 30
0.0
 11
-12036.568193688399
 21
-4413.5075467991001
 31
0.0
  0
LINE
  5
287
100
AcDbEntity
  8
平面図
370
               5
  6
Continuous
 62
               7
100
AcDbLine
 10
-12036.568193688399
 20
-4413.5075467991001
 30
0.0
 11
-12236.568193688399
 21
-4413.5075467991001
 31
0.0
  0
LINE
  5
288
100
AcDbEntity
  8
平面図
370
               5
  6
Continuous
 62
               7
100
AcDbLine
 10
-12668.312283928899
 20
-3713.7249740093293
 30
0.0
 11
-12668.312283928899
 21
-4413.7249740093303
 31
0.0
  0
LINE
  5
289
100
AcDbEntity
  8
平面図
370
               5
  6
Continuous
 62
               7
100
AcDbLine
 10
-12240.555354759399
 20
-4407.7527444849102
 30
0.0
 11
-12240.555354759399
 21
-4864.2640749638604
 31
0.0
  0
LINE
  5
28A
100
AcDbEntity
  8
平面図
370
               5
  6
Continuous
 62
               7
100
AcDbLine
 10
-12389.720151676098
 20
-4413.7249740093303
 30
0.0
 11
-12389.720151676098
 21
-4863.7249740093303
 31
0.0
  0
MTEXT
  5
28B
100
AcDbEntity
  8
平面図
 62
               7
100
AcDbMText
 10
9094.5563547796992
 20
-83.222036605132871
 30
0.0
 40
249.99999999999997
 41
0.0
 71
               1
 72
               1
  1
上手分電盤
  7
ＭＳ ゴシック
 73
               1
 44
0.7828267384257844
  0
MTEXT
  5
28C
100
AcDbEntity
  8
平面図
 62
               7
100
AcDbMText
 10
7846.4890496421885
 20
-392.41458094965992
 30
0.0
 40
200.0
 41
0.0
 71
               1
 72
               1
  1
3相4線(173/100V)150A
  7
ＭＳ ゴシック
 73
               1
 44
0.7828267384257842
  0
MTEXT
  5
28D
100
AcDbEntity
  8
平面図
 62
               7
100
AcDbMText
 10
8346.3593411816073
 20
-707.4852978830113
 30
0.0
 40
200.0
 41
0.0
 71
               1
 72
               1
  1
3相3線(210V)150A
  7
ＭＳ ゴシック
 73
               1
 44
0.7828267384257842
  0
POLYLINE
  5
28E
100
AcDbEntity
  8
平面図
370
               5
  6
Continuous
 62
               7
100
AcDb2dPolyline
 66
               1
 10
0.0
 20
0.0
 30
0.0
 70
               1
 75
               5
  0
VERTEX
  5
28F
100
AcDbEntity
  8
平面図
370
               5
  6
Continuous
 62
               7
100
AcDbVertex
100
AcDb2dVertex
 10
9405.3224005330012
 20
3.4065553505606658
 30
0.0
  0
VERTEX
  5
290
100
AcDbEntity
  8
平面図
370
               5
  6
Continuous
 62
               7
100
AcDbVertex
100
AcDb2dVertex
 10
9986.0981701293022
 20
3.4065553505606658
 30
0.0
  0
VERTEX
  5
291
100
AcDbEntity
  8
平面図
370
               5
  6
Continuous
 62
               7
100
AcDbVertex
100
AcDb2dVertex
 10
9986.0981701293022
 20
154.70108356470018
 30
0.0
  0
VERTEX
  5
292
100
AcDbEntity
  8
平面図
370
               5
  6
Continuous
 62
               7
100
AcDbVertex
100
AcDb2dVertex
 10
9405.3224005330012
 20
154.70108356470018
 30
0.0
  0
SEQEND
  5
293
100
AcDbEntity
  8
平面図
370
               5
  6
Continuous
 62
               7
  0
SOLID
  5
294
100
AcDbEntity
  8
平面図
370
               5
  6
Continuous
 62
               7
100
AcDbTrace
 10
9405.3224005330012
 20
3.4065553505606658
 30
0.0
 11
9986.0981701293022
 21
3.4065553505606658
 31
0.0
 12
9405.3224005330012
 22
154.70108356470018
 32
0.0
 13
9986.0981701293022
 23
154.70108356470018
 33
0.0
  0
POLYLINE
  5
295
100
AcDbEntity
  8
平面図
370
               5
  6
Continuous
 62
               7
100
AcDb2dPolyline
 66
               1
 10
0.0
 20
0.0
 30
0.0
 70
               1
 75
               5
  0
VERTEX
  5
296
100
AcDbEntity
  8
平面図
370
               5
  6
Continuous
 62
               7
100
AcDbVertex
100
AcDb2dVertex
 10
-12879.764265917998
 20
-3.9141476275508467
 30
0.0
  0
VERTEX
  5
297
100
AcDbEntity
  8
平面図
370
               5
  6
Continuous
 62
               7
100
AcDbVertex
100
AcDb2dVertex
 10
-12298.988496321697
 20
-3.9141476275508467
 30
0.0
  0
VERTEX
  5
298
100
AcDbEntity
  8
平面図
370
               5
  6
Continuous
 62
               7
100
AcDbVertex
100
AcDb2dVertex
 10
-12298.988496321697
 20
147.38038058659913
 30
0.0
  0
VERTEX
  5
299
100
AcDbEntity
  8
平面図
370
               5
  6
Continuous
 62
               7
100
AcDbVertex
100
AcDb2dVertex
 10
-12879.764265917998
 20
147.38038058659913
 30
0.0
  0
SEQEND
  5
29A
100
AcDbEntity
  8
平面図
370
               5
  6
Continuous
 62
               7
  0
SOLID
  5
29B
100
AcDbEntity
  8
平面図
370
               5
  6
Continuous
 62
               7
100
AcDbTrace
 10
-12879.764265917998
 20
-3.9141476275508467
 30
0.0
 11
-12298.988496321697
 21
-3.9141476275508467
 31
0.0
 12
-12879.764265917998
 22
147.38038058659913
 32
0.0
 13
-12298.988496321697
 23
147.38038058659913
 33
0.0
  0
MTEXT
  5
29C
100
AcDbEntity
  8
平面図
 62
               7
100
AcDbMText
 10
-14079.667932237688
 20
-240.49404677718258
 30
0.0
 40
249.99999999999997
 41
0.0
 71
               1
 72
               1
  1
下手分電盤
  7
ＭＳ ゴシック
 73
               1
 44
0.7828267384257844
  0
MTEXT
  5
29D
100
AcDbEntity
  8
平面図
 62
               7
100
AcDbMText
 10
-14715.214319656719
 20
-549.68659112171008
 30
0.0
 40
200.0
 41
0.0
 71
               1
 72
               1
  1
3相4線(173/100V)150A
  7
ＭＳ ゴシック
 73
               1
 44
0.7828267384257842
  0
MTEXT
  5
29E
100
AcDbEntity
  8
平面図
 62
               7
100
AcDbMText
 10
-14492.619577720463
 20
-864.7573080550701
 30
0.0
 40
200.0
 41
0.0
 71
               1
 72
               1
  1
3相3線(210V)150A
  7
ＭＳ ゴシック
 73
               1
 44
0.7828267384257842
  0
MTEXT
  5
29F
100
AcDbEntity
  8
平面図
 62
               7
100
AcDbMText
 10
11043.721667696802
 20
-7407.8791557315462
 30
0.0
 40
217.17881944444446
 41
0.0
 71
               1
 72
               1
  1
舞台間口(大臣柱間）
  7
ＭＳ ゴシック
 73
               1
 44
0.7828267384257843
  0
MTEXT
  5
2A0
100
AcDbEntity
  8
平面図
 62
               7
100
AcDbMText
 10
11363.986240528702
 20
-7783.8419151428961
 30
0.0
 40
217.17881944444446
 41
0.0
 71
               1
 72
               1
  1
袖幕せめ切り間口
  7
ＭＳ ゴシック
 73
               1
 44
0.7828267384257843
  0
MTEXT
  5
2A1
100
AcDbEntity
  8
平面図
 62
               7
100
AcDbMText
 10
9386.7006169578999
 20
-8131.9555812645258
 30
0.0
 40
217.17881944444446
 41
0.0
 71
               1
 72
               1
  1
舞台奥行き（かまち・ホリ幕間）
  7
ＭＳ ゴシック
 73
               1
 44
0.7828267384257843
  0
MTEXT
  5
2A2
100
AcDbEntity
  8
平面図
 62
               7
100
AcDbMText
 10
11350.061693883901
 20
-8507.9183406758784
 30
0.0
 40
217.17881944444446
 41
0.0
 71
               1
 72
               1
  1
プロセニアム高さ
  7
ＭＳ ゴシック
 73
               1
 44
0.7828267384257843
  0
MTEXT
  5
2A3
100
AcDbEntity
  8
平面図
 62
               7
100
AcDbMText
 10
11057.646214341701
 20
-8883.8811000872374
 30
0.0
 40
217.17881944444446
 41
0.0
 71
               1
 72
               1
  1
バトンとびきり高さ
  7
ＭＳ ゴシック
 73
               1
 44
0.7828267384257843
  0
MTEXT
  5
2A4
100
AcDbEntity
  8
平面図
 62
               7
100
AcDbMText
 10
12533.648158697401
 20
-9245.9193128537263
 30
0.0
 40
217.17881944444446
 41
0.0
 71
               1
 72
               1
  1
花道長さ
  7
ＭＳ ゴシック
 73
               1
 44
0.7828267384257843
  0
MTEXT
  5
2A5
100
AcDbEntity
  8
平面図
 62
               7
100
AcDbMText
 10
13786.857356735301
 20
-7361.9177130184135
 30
0.0
 40
300.0
 41
0.0
 71
               1
 72
               1
  1
：
  7
ＭＳ ゴシック
 73
               1
 44
0.7828267384257842
  0
MTEXT
  5
2A6
100
AcDbEntity
  8
平面図
 62
               7
100
AcDbMText
 10
13790.979616965302
 20
-7738.7966158862646
 30
0.0
 40
300.0
 41
0.0
 71
               1
 72
               1
  1
：
  7
ＭＳ ゴシック
 73
               1
 44
0.7828267384257842
  0
MTEXT
  5
2A7
100
AcDbEntity
  8
平面図
 62
               7
100
AcDbMText
 10
13788.364173814702
 20
-8096.0713235610046
 30
0.0
 40
300.0
 41
0.0
 71
               1
 72
               1
  1
：
  7
ＭＳ ゴシック
 73
               1
 44
0.7828267384257842
  0
MTEXT
  5
2A8
100
AcDbEntity
  8
平面図
 62
               7
100
AcDbMText
 10
13783.483705162602
 20
-8486.5088157265454
 30
0.0
 40
300.0
 41
0.0
 71
               1
 72
               1
  1
：
  7
ＭＳ ゴシック
 73
               1
 44
0.7828267384257842
  0
MTEXT
  5
2A9
100
AcDbEntity
  8
平面図
 62
               7
100
AcDbMText
 10
13783.483705162602
 20
-8862.3049019358768
 30
0.0
 40
300.0
 41
0.0
 71
               1
 72
               1
  1
：
  7
ＭＳ ゴシック
 73
               1
 44
0.7828267384257842
  0
MTEXT
  5
2AA
100
AcDbEntity
  8
平面図
 62
               7
100
AcDbMText
 10
13789.412869558102
 20
-9221.9268730255462
 30
0.0
 40
300.0
 41
0.0
 71
               1
 72
               1
  1
：
  7
ＭＳ ゴシック
 73
               1
 44
0.7828267384257842
  0
MTEXT
  5
2AB
100
AcDbEntity
  8
平面図
 62
               7
100
AcDbMText
 10
14124.120461473602
 20
-7402.645151265654
 30
0.0
 40
300.0
 41
0.0
 71
               1
 72
               1
  1
14,380
  7
ＭＳ ゴシック
 73
               1
 44
0.7828267384257842
  0
MTEXT
  5
2AC
100
AcDbEntity
  8
平面図
 62
               7
100
AcDbMText
 10
14124.120461473602
 20
-7786.4940107509037
 30
0.0
 40
300.0
 41
0.0
 71
               1
 72
               1
  1
10,400
  7
ＭＳ ゴシック
 73
               1
 44
0.7828267384257842
  0
MTEXT
  5
2AD
100
AcDbEntity
  8
平面図
 62
               7
100
AcDbMText
 10
14125.2753050713
 20
-8138.5430564153839
 30
0.0
 40
300.0
 41
0.0
 71
               1
 72
               1
  1
11,150
  7
ＭＳ ゴシック
 73
               1
 44
0.7828267384257842
  0
MTEXT
  5
2AE
100
AcDbEntity
  8
平面図
 62
               7
100
AcDbMText
 10
14279.279575084001
 20
-8527.2204997807748
 30
0.0
 40
300.0
 41
0.0
 71
               1
 72
               1
  1
7,200
  7
ＭＳ ゴシック
 73
               1
 44
0.7828267384257842
  0
MTEXT
  5
2AF
100
AcDbEntity
  8
平面図
 62
               7
100
AcDbMText
 10
14125.2753050713
 20
-8890.230564810714
 30
0.0
 40
300.0
 41
0.0
 71
               1
 72
               1
  1
16,400
  7
ＭＳ ゴシック
 73
               1
 44
0.7828267384257842
  0
MTEXT
  5
2B0
100
AcDbEntity
  8
平面図
 62
               7
100
AcDbMText
 10
14272.276047566702
 20
-9261.7528336261057
 30
0.0
 40
300.0
 41
0.0
 71
               1
 72
               1
  1
5,870
  7
ＭＳ ゴシック
 73
               1
 44
0.7828267384257842
  0
MTEXT
  5
2B1
100
AcDbEntity
  8
平面図
 62
               7
100
AcDbMText
 10
15133.013246204402
 20
-9235.1320955239062
 30
0.0
 40
300.0
 41
0.0
 71
               1
 72
               1
  1
(m/m)
  7
ＭＳ ゴシック
 73
               1
 44
0.7828267384257842
  0
MTEXT
  5
2B2
100
AcDbEntity
  8
平面図
 62
               7
100
AcDbMText
 10
6998.2310025384832
 20
-7978.2210867229269
 30
0.0
 40
300.0
 41
0.0
 71
               1
 72
               1
  1
(S=1/100)
  7
ＭＳ ゴシック
 73
               1
 44
0.7828267384257842
  0
MTEXT
  5
2B3
100
AcDbEntity
  8
平面図
 62
               7
100
AcDbMText
 10
-12684.283593911699
 20
3390.0266148578503
 30
0.0
 40
162.88411458333334
 41
0.0
 71
               1
 72
               1
  1
文字幕共吊り
  7
ＭＳ ゴシック
 73
               1
 44
0.7828267384257843
  0
MTEXT
  5
2B4
100
AcDbEntity
  8
平面図
 62
               7
100
AcDbMText
 10
-12677.138099758198
 20
1374.99726357239
 30
0.0
 40
162.88411458333334
 41
0.0
 71
               1
 72
               1
  1
文字幕共吊り
  7
ＭＳ ゴシック
 73
               1
 44
0.7828267384257843
  0
LINE
  5
2B5
100
AcDbEntity
  8
平面図
370
               5
  6
Continuous
 62
               7
100
AcDbLine
 10
-3019.5830344997098
 20
-4596.6272596294002
 30
0.0
 11
1.3774165177092073
 21
-4596.6272596294002
 31
0.0
  0
LINE
  5
2B6
100
AcDbEntity
  8
平面図
370
               5
  6
Continuous
 62
               7
100
AcDbLine
 10
-3019.5830344997098
 20
-3944.12389798
 30
0.0
 11
1.3774165177092073
 21
-3944.12389798
 31
0.0
  0
LINE
  5
2B7
100
AcDbEntity
  8
平面図
370
               5
  6
Continuous
 62
               7
100
AcDbLine
 10
-3019.5830344997098
 20
-4596.6272596294002
 30
0.0
 11
-3019.5830344997098
 21
-3944.12389798
 31
0.0
  0
LINE
  5
2B8
100
AcDbEntity
  8
平面図
370
               5
  6
Continuous
 62
               7
100
AcDbLine
 10
-3019.5830344997098
 20
-4446.0520791579602
 30
0.0
 11
-3019.5830344997098
 21
-4596.6272596294002
 31
0.0
  0
LINE
  5
2B9
100
AcDbEntity
  8
平面図
370
               5
  6
Continuous
 62
               7
100
AcDbLine
 10
-2514.5259576631001
 20
-4446.0520791579602
 30
0.0
 11
-2514.5259576631001
 21
-4596.6272596294002
 31
0.0
  0
LINE
  5
2BA
100
AcDbEntity
  8
平面図
370
               5
  6
Continuous
 62
               7
100
AcDbLine
 10
-2514.5259576631001
 20
-4144.8923642666996
 30
0.0
 11
-2514.5259576631001
 21
-3944.12389798
 31
0.0
  0
LINE
  5
2BB
100
AcDbEntity
  8
平面図
370
               5
  6
Continuous
 62
               7
100
AcDbLine
 10
-2012.6024534594999
 20
-4446.0520791579602
 30
0.0
 11
-2012.6024534594999
 21
-4596.6272596294002
 31
0.0
  0
LINE
  5
2BC
100
AcDbEntity
  8
平面図
370
               5
  6
Continuous
 62
               7
100
AcDbLine
 10
-2012.6024534594999
 20
-4144.8923642666996
 30
0.0
 11
-2012.6024534594999
 21
-3944.12389798
 31
0.0
  0
LINE
  5
2BD
100
AcDbEntity
  8
平面図
370
               5
  6
Continuous
 62
               7
100
AcDbLine
 10
-1507.53602267465
 20
-4446.0520791579602
 30
0.0
 11
-1507.53602267465
 21
-4596.6272596294002
 31
0.0
  0
LINE
  5
2BE
100
AcDbEntity
  8
平面図
370
               5
  6
Continuous
 62
               7
100
AcDbLine
 10
-1507.53602267465
 20
-4144.8923642666996
 30
0.0
 11
-1507.53602267465
 21
-3944.12389798
 31
0.0
  0
LINE
  5
2BF
100
AcDbEntity
  8
平面図
370
               5
  6
Continuous
 62
               7
100
AcDbLine
 10
-1005.6125184708999
 20
-4446.0520791579602
 30
0.0
 11
-1005.6125184708999
 21
-4596.6272596294002
 31
0.0
  0
LINE
  5
2C0
100
AcDbEntity
  8
平面図
370
               5
  6
Continuous
 62
               7
100
AcDbLine
 10
-1005.6125184708999
 20
-4144.8923642666996
 30
0.0
 11
-1005.6125184708999
 21
-3944.12389798
 31
0.0
  0
LINE
  5
2C1
100
AcDbEntity
  8
平面図
370
               5
  6
Continuous
 62
               7
100
AcDbLine
 10
-500.54608768608898
 20
-4446.0520791579602
 30
0.0
 11
-500.54608768608898
 21
-4596.6272596294002
 31
0.0
  0
LINE
  5
2C2
100
AcDbEntity
  8
平面図
370
               5
  6
Continuous
 62
               7
100
AcDbLine
 10
-500.54608768608898
 20
-4144.8923642666996
 30
0.0
 11
-500.54608768608898
 21
-3944.12389798
 31
0.0
  0
LINE
  5
2C3
100
AcDbEntity
  8
平面図
370
               5
  6
Continuous
 62
               7
100
AcDbLine
 10
-2765.4830327908899
 20
-3489.2554299846297
 30
0.0
 11
-2765.4830327908899
 21
-2987.3272488066495
 31
0.0
  0
LINE
  5
2C4
100
AcDbEntity
  8
平面図
370
               5
  6
Continuous
 62
               7
100
AcDbLine
 10
-2765.4830327908899
 20
-3489.2554299846297
 30
0.0
 11
-2765.4830327908899
 21
-3639.8306104560606
 31
0.0
  0
LINE
  5
2C5
100
AcDbEntity
  8
平面図
370
               5
  6
Continuous
 62
               7
100
AcDbLine
 10
-2263.5595285873001
 20
-3489.2554299846297
 30
0.0
 11
-2263.5595285873001
 21
-3639.8306104560606
 31
0.0
  0
LINE
  5
2C6
100
AcDbEntity
  8
平面図
370
               5
  6
Continuous
 62
               7
100
AcDbLine
 10
-2263.5595285873001
 20
-3188.1003920675603
 30
0.0
 11
-2263.5595285873001
 21
-2987.3272488066495
 31
0.0
  0
LINE
  5
2C7
100
AcDbEntity
  8
平面図
370
               5
  6
Continuous
 62
               7
100
AcDbLine
 10
-1758.5024517506699
 20
-3489.2554299846297
 30
0.0
 11
-1758.5024517506699
 21
-3639.8306104560606
 31
0.0
  0
LINE
  5
2C8
100
AcDbEntity
  8
平面図
370
               5
  6
Continuous
 62
               7
100
AcDbLine
 10
-1758.5024517506699
 20
-3188.1003920675603
 30
0.0
 11
-1758.5024517506699
 21
-2987.3272488066495
 31
0.0
  0
LINE
  5
2C9
100
AcDbEntity
  8
平面図
370
               5
  6
Continuous
 62
               7
100
AcDbLine
 10
-1256.5695935986801
 20
-3489.2554299846297
 30
0.0
 11
-1256.5695935986801
 21
-3639.8306104560606
 31
0.0
  0
LINE
  5
2CA
100
AcDbEntity
  8
平面図
370
               5
  6
Continuous
 62
               7
100
AcDbLine
 10
-1256.5695935986801
 20
-3188.1003920675603
 30
0.0
 11
-1256.5695935986801
 21
-2987.3272488066495
 31
0.0
  0
LINE
  5
2CB
100
AcDbEntity
  8
平面図
370
               5
  6
Continuous
 62
               7
100
AcDbLine
 10
-751.51251676205004
 20
-3489.2554299846297
 30
0.0
 11
-751.51251676205004
 21
-3639.8306104560606
 31
0.0
  0
LINE
  5
2CC
100
AcDbEntity
  8
平面図
370
               5
  6
Continuous
 62
               7
100
AcDbLine
 10
-751.51251676205004
 20
-3188.1003920675603
 30
0.0
 11
-751.51251676205004
 21
-2987.3272488066495
 31
0.0
  0
LINE
  5
2CD
100
AcDbEntity
  8
平面図
370
               5
  6
Continuous
 62
               7
100
AcDbLine
 10
-249.57965861008097
 20
-3489.2554299846297
 30
0.0
 11
-249.57965861008097
 21
-3639.8306104560606
 31
0.0
  0
LINE
  5
2CE
100
AcDbEntity
  8
平面図
370
               5
  6
Continuous
 62
               7
100
AcDbLine
 10
-249.57965861008097
 20
-3188.1003920675603
 30
0.0
 11
-249.57965861008097
 21
-2987.3272488066495
 31
0.0
  0
LINE
  5
2CF
100
AcDbEntity
  8
平面図
370
               5
  6
Continuous
 62
               7
100
AcDbLine
 10
-2765.4830327908899
 20
-5402.8440513571104
 30
0.0
 11
-2765.4830327908899
 21
-4900.9205471533396
 31
0.0
  0
LINE
  5
2D0
100
AcDbEntity
  8
平面図
370
               5
  6
Continuous
 62
               7
100
AcDbLine
 10
-2765.4830327908899
 20
-5402.8440513571104
 30
0.0
 11
-2765.4830327908899
 21
-5553.4239088027398
 31
0.0
  0
LINE
  5
2D1
100
AcDbEntity
  8
平面図
370
               5
  6
Continuous
 62
               7
100
AcDbLine
 10
-2263.5595285873001
 20
-5402.8440513571104
 30
0.0
 11
-2263.5595285873001
 21
-5553.4239088027398
 31
0.0
  0
LINE
  5
2D2
100
AcDbEntity
  8
平面図
370
               5
  6
Continuous
 62
               7
100
AcDbLine
 10
-2263.5595285873001
 20
-5101.6890134400501
 30
0.0
 11
-2263.5595285873001
 21
-4900.9205471533396
 31
0.0
  0
LINE
  5
2D3
100
AcDbEntity
  8
平面図
370
               5
  6
Continuous
 62
               7
100
AcDbLine
 10
-1758.5024517506699
 20
-5402.8440513571104
 30
0.0
 11
-1758.5024517506699
 21
-5553.4239088027398
 31
0.0
  0
LINE
  5
2D4
100
AcDbEntity
  8
平面図
370
               5
  6
Continuous
 62
               7
100
AcDbLine
 10
-1758.5024517506699
 20
-5101.6890134400501
 30
0.0
 11
-1758.5024517506699
 21
-4900.9205471533396
 31
0.0
  0
LINE
  5
2D5
100
AcDbEntity
  8
平面図
370
               5
  6
Continuous
 62
               7
100
AcDbLine
 10
-1256.5695935986801
 20
-5402.8440513571104
 30
0.0
 11
-1256.5695935986801
 21
-5553.4239088027398
 31
0.0
  0
LINE
  5
2D6
100
AcDbEntity
  8
平面図
370
               5
  6
Continuous
 62
               7
100
AcDbLine
 10
-1256.5695935986801
 20
-5101.6890134400501
 30
0.0
 11
-1256.5695935986801
 21
-4900.9205471533396
 31
0.0
  0
LINE
  5
2D7
100
AcDbEntity
  8
平面図
370
               5
  6
Continuous
 62
               7
100
AcDbLine
 10
-751.51251676205004
 20
-5402.8440513571104
 30
0.0
 11
-751.51251676205004
 21
-5553.4239088027398
 31
0.0
  0
LINE
  5
2D8
100
AcDbEntity
  8
平面図
370
               5
  6
Continuous
 62
               7
100
AcDbLine
 10
-751.51251676205004
 20
-5101.6890134400501
 30
0.0
 11
-751.51251676205004
 21
-4900.9205471533396
 31
0.0
  0
LINE
  5
2D9
100
AcDbEntity
  8
平面図
370
               5
  6
Continuous
 62
               7
100
AcDbLine
 10
-249.57965861008097
 20
-5402.8440513571104
 30
0.0
 11
-249.57965861008097
 21
-5553.4239088027398
 31
0.0
  0
LINE
  5
2DA
100
AcDbEntity
  8
平面図
370
               5
  6
Continuous
 62
               7
100
AcDbLine
 10
-249.57965861008097
 20
-5101.6890134400501
 30
0.0
 11
-249.57965861008097
 21
-4900.9205471533396
 31
0.0
  0
LINE
  5
2DB
100
AcDbEntity
  8
平面図
370
               5
  6
Continuous
 62
               7
100
AcDbLine
 10
-2765.4830327908899
 20
-3639.8306104560606
 30
0.0
 11
1.3774165177092073
 21
-3639.8306104560606
 31
0.0
  0
LINE
  5
2DC
100
AcDbEntity
  8
平面図
370
               5
  6
Continuous
 62
               7
100
AcDbLine
 10
-2765.4830327908899
 20
-2987.3272488066495
 30
0.0
 11
1.3774165177092073
 21
-2987.3272488066495
 31
0.0
  0
LINE
  5
2DD
100
AcDbEntity
  8
平面図
370
               5
  6
Continuous
 62
               7
100
AcDbLine
 10
-2765.4830327908899
 20
-5553.4239088027398
 30
0.0
 11
1.3774165177092073
 21
-5553.4239088027398
 31
0.0
  0
LINE
  5
2DE
100
AcDbEntity
  8
平面図
370
               5
  6
Continuous
 62
               7
100
AcDbLine
 10
-2765.4830327908899
 20
-4900.9205471533396
 30
0.0
 11
1.3774165177092073
 21
-4900.9205471533396
 31
0.0
  0
LINE
  5
2DF
100
AcDbEntity
  8
平面図
370
               5
  6
Continuous
 62
               7
100
AcDbLine
 10
-3019.5830344997098
 20
-2683.0339612827302
 30
0.0
 11
1.3774165177092073
 21
-2683.0339612827302
 31
0.0
  0
LINE
  5
2E0
100
AcDbEntity
  8
平面図
370
               5
  6
Continuous
 62
               7
100
AcDbLine
 10
-3019.5830344997098
 20
-2030.53059963333
 30
0.0
 11
1.3774165177092073
 21
-2030.53059963333
 31
0.0
  0
LINE
  5
2E1
100
AcDbEntity
  8
平面図
370
               5
  6
Continuous
 62
               7
100
AcDbLine
 10
-3019.5830344997098
 20
-2532.4587808112901
 30
0.0
 11
-3019.5830344997098
 21
-2683.0339612827302
 31
0.0
  0
LINE
  5
2E2
100
AcDbEntity
  8
平面図
370
               5
  6
Continuous
 62
               7
100
AcDbLine
 10
-2514.5259576631001
 20
-2532.4587808112901
 30
0.0
 11
-2514.5259576631001
 21
-2683.0339612827302
 31
0.0
  0
LINE
  5
2E3
100
AcDbEntity
  8
平面図
370
               5
  6
Continuous
 62
               7
100
AcDbLine
 10
-2514.5259576631001
 20
-2231.3037428940397
 30
0.0
 11
-2514.5259576631001
 21
-2030.53059963333
 31
0.0
  0
LINE
  5
2E4
100
AcDbEntity
  8
平面図
370
               5
  6
Continuous
 62
               7
100
AcDbLine
 10
-2012.6024534594999
 20
-2532.4587808112901
 30
0.0
 11
-2012.6024534594999
 21
-2683.0339612827302
 31
0.0
  0
LINE
  5
2E5
100
AcDbEntity
  8
平面図
370
               5
  6
Continuous
 62
               7
100
AcDbLine
 10
-2012.6024534594999
 20
-2231.3037428940397
 30
0.0
 11
-2012.6024534594999
 21
-2030.53059963333
 31
0.0
  0
LINE
  5
2E6
100
AcDbEntity
  8
平面図
370
               5
  6
Continuous
 62
               7
100
AcDbLine
 10
-1507.53602267465
 20
-2532.4587808112901
 30
0.0
 11
-1507.53602267465
 21
-2683.0339612827302
 31
0.0
  0
LINE
  5
2E7
100
AcDbEntity
  8
平面図
370
               5
  6
Continuous
 62
               7
100
AcDbLine
 10
-1507.53602267465
 20
-2231.3037428940397
 30
0.0
 11
-1507.53602267465
 21
-2030.53059963333
 31
0.0
  0
LINE
  5
2E8
100
AcDbEntity
  8
平面図
370
               5
  6
Continuous
 62
               7
100
AcDbLine
 10
-1005.6125184708999
 20
-2532.4587808112901
 30
0.0
 11
-1005.6125184708999
 21
-2683.0339612827302
 31
0.0
  0
LINE
  5
2E9
100
AcDbEntity
  8
平面図
370
               5
  6
Continuous
 62
               7
100
AcDbLine
 10
-1005.6125184708999
 20
-2231.3037428940397
 30
0.0
 11
-1005.6125184708999
 21
-2030.53059963333
 31
0.0
  0
LINE
  5
2EA
100
AcDbEntity
  8
平面図
370
               5
  6
Continuous
 62
               7
100
AcDbLine
 10
-500.54608768608898
 20
-2532.4587808112901
 30
0.0
 11
-500.54608768608898
 21
-2683.0339612827302
 31
0.0
  0
LINE
  5
2EB
100
AcDbEntity
  8
平面図
370
               5
  6
Continuous
 62
               7
100
AcDbLine
 10
-500.54608768608898
 20
-2231.3037428940397
 30
0.0
 11
-500.54608768608898
 21
-2030.53059963333
 31
0.0
  0
LINE
  5
2EC
100
AcDbEntity
  8
平面図
370
               5
  6
Continuous
 62
               7
100
AcDbLine
 10
-3019.5830344997098
 20
-2532.4587808112901
 30
0.0
 11
-3019.5830344997098
 21
-2030.53059963333
 31
0.0
  0
LINE
  5
2ED
100
AcDbEntity
  8
平面図
370
               5
  6
Continuous
 62
               7
100
AcDbLine
 10
-3875.99311204272
 20
-5572.2440524963504
 30
0.0
 11
-3981.8325391786302
 21
-6127.8287323059512
 31
0.0
  0
LINE
  5
2EE
100
AcDbEntity
  8
平面図
370
               5
  6
Continuous
 62
               7
100
AcDbLine
 10
-4409.2897583681397
 20
-5672.6306241267002
 30
0.0
 11
-4371.6494709807603
 21
-5474.9957304730406
 31
0.0
  0
LINE
  5
2EF
100
AcDbEntity
  8
平面図
370
               5
  6
Continuous
 62
               7
100
AcDbLine
 10
-4901.8125446731301
 20
-5578.5205517102795
 30
0.0
 11
-4864.1629033377003
 21
-5380.8856580566198
 31
0.0
  0
LINE
  5
2F0
100
AcDbEntity
  8
平面図
370
               5
  6
Continuous
 62
               7
100
AcDbLine
 10
-3875.99311204272
 20
-5572.2440524963504
 30
0.0
 11
-5356.6763356946803
 21
-5283.6373360331409
 31
0.0
  0
LINE
  5
2F1
100
AcDbEntity
  8
平面図
370
               5
  6
Continuous
 62
               7
100
AcDbLine
 10
-6965.97634651724
 20
-5638.1239093723498
 30
0.0
 11
-5485.2931228654597
 21
-5926.7306258355502
 31
0.0
  0
LINE
  5
2F2
100
AcDbEntity
  8
平面図
370
               5
  6
Continuous
 62
               7
100
AcDbLine
 10
-5397.4595496629699
 20
-5481.2722296869788
 30
0.0
 11
-5359.8192622755696
 21
-5283.6373360331409
 31
0.0
  0
LINE
  5
2F3
100
AcDbEntity
  8
平面図
370
               5
  6
Continuous
 62
               7
100
AcDbLine
 10
-5893.1159086010102
 20
-5384.0239076634998
 30
0.0
 11
-5852.3326946325196
 21
-5189.5272636167201
 31
0.0
  0
LINE
  5
2F4
100
AcDbEntity
  8
平面図
370
               5
  6
Continuous
 62
               7
100
AcDbLine
 10
-6445.2326986198304
 20
-5584.7923739501994
 30
0.0
 11
-6470.3293415273802
 21
-5735.3722313958306
 31
0.0
  0
LINE
  5
2F5
100
AcDbEntity
  8
平面図
370
               5
  6
Continuous
 62
               7
100
AcDbLine
 10
-6385.6293409577602
 20
-5289.9138352470791
 30
0.0
 11
-6347.9796996223604
 21
-5092.2789415932411
 31
0.0
  0
LINE
  5
2F6
100
AcDbEntity
  8
平面図
370
               5
  6
Continuous
 62
               7
100
AcDbLine
 10
-6965.97634651724
 20
-5638.1239093723498
 30
0.0
 11
-6937.7461309768396
 21
-5490.6823015337804
 31
0.0
  0
LINE
  5
2F7
100
AcDbEntity
  8
平面図
370
               5
  6
Continuous
 62
               7
100
AcDbLine
 10
-6843.6360585603998
 20
-4995.0306195699504
 30
0.0
 11
-6935.1291944222603
 21
-5519.0514168213203
 31
0.0
  0
LINE
  5
2F8
100
AcDbEntity
  8
平面図
370
               5
  6
Continuous
 62
               7
100
AcDbLine
 10
-6843.6360585603998
 20
-4995.0306195699504
 30
0.0
 11
-5359.8192622755696
 21
-5283.6373360331409
 31
0.0
  0
LINE
  5
2F9
100
AcDbEntity
  8
平面図
370
               5
  6
Continuous
 62
               7
100
AcDbLine
 10
-4001.4763265808097
 20
-5258.5406931255993
 30
0.0
 11
-5485.2931228654597
 21
-4969.9339766622097
 31
0.0
  0
LINE
  5
2FA
100
AcDbEntity
  8
平面図
370
               5
  6
Continuous
 62
               7
100
AcDbLine
 10
-4001.4763265808097
 20
-5258.5406931255993
 30
0.0
 11
-3970.1125384073503
 21
-5107.9655126539792
 31
0.0
  0
LINE
  5
2FB
100
AcDbEntity
  8
平面図
370
               5
  6
Continuous
 62
               7
100
AcDbLine
 10
-3875.99311204272
 20
-4615.4520802972002
 30
0.0
 11
-3973.2908441399495
 21
-5126.1866104194987
 31
0.0
  0
LINE
  5
2FC
100
AcDbEntity
  8
平面図
370
               5
  6
Continuous
 62
               7
100
AcDbLine
 10
-4465.7595433971901
 20
-5013.8554402375603
 30
0.0
 11
-4493.9897589377697
 21
-5161.2923711021203
 31
0.0
  0
LINE
  5
2FD
100
AcDbEntity
  8
平面図
370
               5
  6
Continuous
 62
               7
100
AcDbLine
 10
-4409.2897583681397
 20
-4715.8339749533698
 30
0.0
 11
-4371.6494709807603
 21
-4518.2037582737103
 31
0.0
  0
LINE
  5
2FE
100
AcDbEntity
  8
平面図
370
               5
  6
Continuous
 62
               7
100
AcDbLine
 10
-4961.4159023352004
 20
-4916.6071182142596
 30
0.0
 11
-4989.6461178756299
 21
-5067.1822986856996
 31
0.0
  0
LINE
  5
2FF
100
AcDbEntity
  8
平面図
370
               5
  6
Continuous
 62
               7
100
AcDbLine
 10
-4901.8125446731301
 20
-4621.7239025369399
 30
0.0
 11
-4864.1629033377003
 21
-4424.0890088831002
 31
0.0
  0
LINE
  5
300
100
AcDbEntity
  8
平面図
370
               5
  6
Continuous
 62
               7
100
AcDbLine
 10
-3875.99311204272
 20
-4615.4520802972002
 30
0.0
 11
-5356.6763356946803
 21
-4326.8406868598104
 31
0.0
  0
LINE
  5
301
100
AcDbEntity
  8
平面図
370
               5
  6
Continuous
 62
               7
100
AcDbLine
 10
-6470.3293415273802
 20
-4778.5755822225001
 30
0.0
 11
-5485.2931228654597
 21
-4969.9339766622097
 31
0.0
  0
LINE
  5
302
100
AcDbEntity
  8
平面図
370
               5
  6
Continuous
 62
               7
100
AcDbLine
 10
-5397.4595496629699
 20
-4524.4755805136401
 30
0.0
 11
-5359.8192622755696
 21
-4326.8406868598104
 31
0.0
  0
LINE
  5
303
100
AcDbEntity
  8
平面図
370
               5
  6
Continuous
 62
               7
100
AcDbLine
 10
-5457.0629073250502
 20
-4822.4923688236504
 30
0.0
 11
-5485.2931228654597
 21
-4969.9339766622097
 31
0.0
  0
LINE
  5
304
100
AcDbEntity
  8
平面図
370
               5
  6
Continuous
 62
               7
100
AcDbLine
 10
-5949.5763396818102
 20
-4725.2440468003497
 30
0.0
 11
-5977.8159091706102
 21
-4872.6856546389199
 31
0.0
  0
LINE
  5
305
100
AcDbEntity
  8
平面図
370
               5
  6
Continuous
 62
               7
100
AcDbLine
 10
-5893.1159086010102
 20
-4427.2272584901702
 30
0.0
 11
-5852.3326946325196
 21
-4232.7306144433796
 31
0.0
  0
LINE
  5
306
100
AcDbEntity
  8
平面図
370
               5
  6
Continuous
 62
               7
100
AcDbLine
 10
-6470.3293415273802
 20
-4778.5755822225001
 30
0.0
 11
-6445.2326986198304
 21
-4627.9957247768598
 31
0.0
  0
LINE
  5
307
100
AcDbEntity
  8
平面図
370
               5
  6
Continuous
 62
               7
100
AcDbLine
 10
-6347.9796996223604
 20
-4135.4822924198997
 30
0.0
 11
-6449.9977254079004
 21
-4671.0072260384504
 31
0.0
  0
LINE
  5
308
100
AcDbEntity
  8
平面図
370
               5
  6
Continuous
 62
               7
100
AcDbLine
 10
-6347.9796996223604
 20
-4135.4822924198997
 30
0.0
 11
-5359.8192622755696
 21
-4326.8406868598104
 31
0.0
  0
LINE
  5
309
100
AcDbEntity
  8
平面図
370
               5
  6
Continuous
 62
               7
100
AcDbLine
 10
-4001.4763265808097
 20
-4301.7440439522597
 30
0.0
 11
-5485.2931228654597
 21
-4013.1373274888701
 31
0.0
  0
LINE
  5
30A
100
AcDbEntity
  8
平面図
370
               5
  6
Continuous
 62
               7
100
AcDbLine
 10
-4001.4763265808097
 20
-4301.7440439522597
 30
0.0
 11
-3970.1125384073503
 21
-4151.1688634806396
 31
0.0
  0
LINE
  5
30B
100
AcDbEntity
  8
平面図
370
               5
  6
Continuous
 62
               7
100
AcDbLine
 10
-3875.99311204272
 20
-3658.6554311238497
 30
0.0
 11
-3977.5015462787405
 21
-4191.4927475288996
 31
0.0
  0
LINE
  5
30C
100
AcDbEntity
  8
平面図
370
               5
  6
Continuous
 62
               7
100
AcDbLine
 10
-4465.7595433971901
 20
-4057.0587910642198
 30
0.0
 11
-4493.9897589377697
 21
-4204.50039890278
 31
0.0
  0
LINE
  5
30D
100
AcDbEntity
  8
平面図
370
               5
  6
Continuous
 62
               7
100
AcDbLine
 10
-4409.2897583681397
 20
-3759.0373257800302
 30
0.0
 11
-4371.6494709807603
 21
-3561.4071091003798
 31
0.0
  0
LINE
  5
30E
100
AcDbEntity
  8
平面図
370
               5
  6
Continuous
 62
               7
100
AcDbLine
 10
-4961.4159023352004
 20
-3959.81046904092
 30
0.0
 11
-4989.6461178756299
 21
-4110.38564951236
 31
0.0
  0
LINE
  5
30F
100
AcDbEntity
  8
平面図
370
               5
  6
Continuous
 62
               7
100
AcDbLine
 10
-4901.8125446731301
 20
-3664.9272533636004
 30
0.0
 11
-4864.1629033377003
 21
-3467.2923597097606
 31
0.0
  0
LINE
  5
310
100
AcDbEntity
  8
平面図
370
               5
  6
Continuous
 62
               7
100
AcDbLine
 10
-3875.99311204272
 20
-3658.6554311238497
 30
0.0
 11
-5356.6763356946803
 21
-3370.0440376864599
 31
0.0
  0
LINE
  5
311
100
AcDbEntity
  8
平面図
370
               5
  6
Continuous
 62
               7
100
AcDbLine
 10
-5977.8159091706102
 20
-3915.8890054655794
 30
0.0
 11
-5485.2931228654597
 21
-4013.1373274888701
 31
0.0
  0
LINE
  5
312
100
AcDbEntity
  8
平面図
370
               5
  6
Continuous
 62
               7
100
AcDbLine
 10
-5397.4595496629699
 20
-3567.6789313402996
 30
0.0
 11
-5359.8192622755696
 21
-3370.0440376864599
 31
0.0
  0
LINE
  5
313
100
AcDbEntity
  8
平面図
370
               5
  6
Continuous
 62
               7
100
AcDbLine
 10
-5457.0629073250502
 20
-3865.7003966243201
 30
0.0
 11
-5485.2931228654597
 21
-4013.1373274888701
 31
0.0
  0
LINE
  5
314
100
AcDbEntity
  8
平面図
370
               5
  6
Continuous
 62
               7
100
AcDbLine
 10
-5852.3326946325196
 20
-3275.9339652700501
 30
0.0
 11
-5359.8192622755696
 21
-3370.0440376864599
 31
0.0
  0
LINE
  5
315
100
AcDbEntity
  8
平面図
370
               5
  6
Continuous
 62
               7
100
AcDbLine
 10
-5485.2931228654597
 20
-3056.3406783155506
 30
0.0
 11
-4001.4763265808097
 21
-3344.9520717529294
 31
0.0
  0
LINE
  5
316
100
AcDbEntity
  8
平面図
370
               5
  6
Continuous
 62
               7
100
AcDbLine
 10
-4001.4763265808097
 20
-3344.9520717529294
 30
0.0
 11
-3970.1125384073503
 21
-3194.3722143073101
 31
0.0
  0
LINE
  5
317
100
AcDbEntity
  8
平面図
370
               5
  6
Continuous
 62
               7
100
AcDbLine
 10
-3875.99311204272
 20
-2701.85878195033
 30
0.0
 11
-3990.2887812444596
 21
-3301.8187568291296
 31
0.0
  0
LINE
  5
318
100
AcDbEntity
  8
平面図
370
               5
  6
Continuous
 62
               7
100
AcDbLine
 10
-4465.7595433971901
 20
-3100.2621418908793
 30
0.0
 11
-4493.9897589377697
 21
-3247.7037497294596
 31
0.0
  0
LINE
  5
319
100
AcDbEntity
  8
平面図
370
               5
  6
Continuous
 62
               7
100
AcDbLine
 10
-4409.2897583681397
 20
-2802.2406766066897
 30
0.0
 11
-4371.6494709807603
 21
-2604.6104599270402
 31
0.0
  0
LINE
  5
31A
100
AcDbEntity
  8
平面図
370
               5
  6
Continuous
 62
               7
100
AcDbLine
 10
-4961.4159023352004
 20
-3003.0138198674003
 30
0.0
 11
-4989.6461178756299
 21
-3153.5890003390296
 31
0.0
  0
LINE
  5
31B
100
AcDbEntity
  8
平面図
370
               5
  6
Continuous
 62
               7
100
AcDbLine
 10
-4901.8125446731301
 20
-2708.1306041902699
 30
0.0
 11
-4864.1629033377003
 21
-2510.5003875106204
 31
0.0
  0
LINE
  5
31C
100
AcDbEntity
  8
平面図
370
               5
  6
Continuous
 62
               7
100
AcDbLine
 10
-5359.8192622755696
 20
-2413.2520654871505
 30
0.0
 11
-3875.99311204272
 21
-2701.85878195033
 31
0.0
  0
LINE
  5
31D
100
AcDbEntity
  8
平面図
370
               5
  6
Continuous
 62
               7
100
AcDbLine
 10
-5359.8192622755696
 20
-2413.2520654871505
 30
0.0
 11
-5478.8609995979004
 21
-3038.2803523016601
 31
0.0
  0
LINE
  5
31E
100
AcDbEntity
  8
平面図
370
               5
  6
Continuous
 62
               7
100
AcDbLine
 10
-5485.2931228654597
 20
-3056.3406783155506
 30
0.0
 11
-5457.0629073250502
 21
-2908.9037474509796
 31
0.0
  0
LINE
  5
31F
100
AcDbEntity
  8
平面図
370
               5
  6
Continuous
 62
               7
100
AcDbLine
 10
-5977.8159091706102
 20
-3915.8890054655794
 30
0.0
 11
-5949.5763396818102
 21
-3768.4520746010103
 31
0.0
  0
LINE
  5
320
100
AcDbEntity
  8
平面図
370
               5
  6
Continuous
 62
               7
100
AcDbLine
 10
-5852.3326946325196
 20
-3275.9339652700501
 30
0.0
 11
-5958.2467049392799
 21
-3781.0417671739297
 31
0.0
  0
LINE
  5
321
100
AcDbEntity
  8
平面図
370
               5
  6
Continuous
 62
               7
100
AcDbLine
 10
-4001.4763265808097
 20
-6215.3373422989398
 30
0.0
 11
-5485.2931228654597
 21
-5926.7306258355502
 31
0.0
  0
LINE
  5
322
100
AcDbEntity
  8
平面図
370
               5
  6
Continuous
 62
               7
100
AcDbLine
 10
-4001.4763265808097
 20
-6215.3373422989398
 30
0.0
 11
-3970.1125384073503
 21
-6064.7621618273197
 31
0.0
  0
LINE
  5
323
100
AcDbEntity
  8
平面図
370
               5
  6
Continuous
 62
               7
100
AcDbLine
 10
-4465.7595433971901
 20
-5970.6474124368897
 30
0.0
 11
-4493.9897589377697
 21
-6118.089020275459
 31
0.0
  0
LINE
  5
324
100
AcDbEntity
  8
平面図
370
               5
  6
Continuous
 62
               7
100
AcDbLine
 10
-4961.4159023352004
 20
-5873.4037673876001
 30
0.0
 11
-4989.6461178756299
 21
-6023.978947859031
 31
0.0
  0
LINE
  5
325
100
AcDbEntity
  8
平面図
370
               5
  6
Continuous
 62
               7
100
AcDbLine
 10
-5457.0629073250502
 20
-5779.28901799699
 30
0.0
 11
-5485.2931228654597
 21
-5926.7306258355502
 31
0.0
  0
LINE
  5
326
100
AcDbEntity
  8
平面図
370
               5
  6
Continuous
 62
               7
100
AcDbLine
 10
-5949.5763396818102
 20
-5682.0406959736893
 30
0.0
 11
-5977.8159091706102
 21
-5829.4823038122604
 31
0.0
  0
LINE
  5
327
100
AcDbEntity
  8
平面図
370
               5
  6
Continuous
 62
               7
100
AcDbLine
 10
3022.34722148337
 20
-4596.6272596294002
 30
0.0
 11
1.3774165177092073
 21
-4596.6272596294002
 31
0.0
  0
LINE
  5
328
100
AcDbEntity
  8
平面図
370
               5
  6
Continuous
 62
               7
100
AcDbLine
 10
3022.34722148337
 20
-3944.12389798
 30
0.0
 11
1.3774165177092073
 21
-3944.12389798
 31
0.0
  0
LINE
  5
329
100
AcDbEntity
  8
平面図
370
               5
  6
Continuous
 62
               7
100
AcDbLine
 10
3022.34722148337
 20
-4596.6272596294002
 30
0.0
 11
3022.34722148337
 21
-3944.12389798
 31
0.0
  0
LINE
  5
32A
100
AcDbEntity
  8
平面図
370
               5
  6
Continuous
 62
               7
100
AcDbLine
 10
3022.34722148337
 20
-4446.0520791579602
 30
0.0
 11
3022.34722148337
 21
-4596.6272596294002
 31
0.0
  0
LINE
  5
32B
100
AcDbEntity
  8
平面図
370
               5
  6
Continuous
 62
               7
100
AcDbLine
 10
2517.2807906984999
 20
-4446.0520791579602
 30
0.0
 11
2517.2807906984999
 21
-4596.6272596294002
 31
0.0
  0
LINE
  5
32C
100
AcDbEntity
  8
平面図
370
               5
  6
Continuous
 62
               7
100
AcDbLine
 10
2517.2807906984999
 20
-4144.8923642666996
 30
0.0
 11
2517.2807906984999
 21
-3944.12389798
 31
0.0
  0
LINE
  5
32D
100
AcDbEntity
  8
平面図
370
               5
  6
Continuous
 62
               7
100
AcDbLine
 10
2015.35728649474
 20
-4446.0520791579602
 30
0.0
 11
2015.35728649474
 21
-4596.6272596294002
 31
0.0
  0
LINE
  5
32E
100
AcDbEntity
  8
平面図
370
               5
  6
Continuous
 62
               7
100
AcDbLine
 10
2015.35728649474
 20
-4144.8923642666996
 30
0.0
 11
2015.35728649474
 21
-3944.12389798
 31
0.0
  0
LINE
  5
32F
100
AcDbEntity
  8
平面図
370
               5
  6
Continuous
 62
               7
100
AcDbLine
 10
1510.2908557098999
 20
-4446.0520791579602
 30
0.0
 11
1510.2908557098999
 21
-4596.6272596294002
 31
0.0
  0
LINE
  5
330
100
AcDbEntity
  8
平面図
370
               5
  6
Continuous
 62
               7
100
AcDbLine
 10
1510.2908557098999
 20
-4144.8923642666996
 30
0.0
 11
1510.2908557098999
 21
-3944.12389798
 31
0.0
  0
LINE
  5
331
100
AcDbEntity
  8
平面図
370
               5
  6
Continuous
 62
               7
100
AcDbLine
 10
1008.36735150612
 20
-4446.0520791579602
 30
0.0
 11
1008.36735150612
 21
-4596.6272596294002
 31
0.0
  0
LINE
  5
332
100
AcDbEntity
  8
平面図
370
               5
  6
Continuous
 62
               7
100
AcDbLine
 10
1008.36735150612
 20
-4144.8923642666996
 30
0.0
 11
1008.36735150612
 21
-3944.12389798
 31
0.0
  0
LINE
  5
333
100
AcDbEntity
  8
平面図
370
               5
  6
Continuous
 62
               7
100
AcDbLine
 10
503.30092072148199
 20
-4446.0520791579602
 30
0.0
 11
503.30092072148199
 21
-4596.6272596294002
 31
0.0
  0
LINE
  5
334
100
AcDbEntity
  8
平面図
370
               5
  6
Continuous
 62
               7
100
AcDbLine
 10
503.30092072148199
 20
-4144.8923642666996
 30
0.0
 11
503.30092072148199
 21
-3944.12389798
 31
0.0
  0
LINE
  5
335
100
AcDbEntity
  8
平面図
370
               5
  6
Continuous
 62
               7
100
AcDbLine
 10
2768.2472197744901
 20
-3639.8306104560606
 30
0.0
 11
2768.2472197744901
 21
-2987.3272488066495
 31
0.0
  0
LINE
  5
336
100
AcDbEntity
  8
平面図
370
               5
  6
Continuous
 62
               7
100
AcDbLine
 10
2768.2472197744901
 20
-3489.2554299846297
 30
0.0
 11
2768.2472197744901
 21
-3639.8306104560606
 31
0.0
  0
LINE
  5
337
100
AcDbEntity
  8
平面図
370
               5
  6
Continuous
 62
               7
100
AcDbLine
 10
2266.3237155707302
 20
-3489.2554299846297
 30
0.0
 11
2266.3237155707302
 21
-3639.8306104560606
 31
0.0
  0
LINE
  5
338
100
AcDbEntity
  8
平面図
370
               5
  6
Continuous
 62
               7
100
AcDbLine
 10
2266.3237155707302
 20
-3188.1003920675603
 30
0.0
 11
2266.3237155707302
 21
-2987.3272488066495
 31
0.0
  0
LINE
  5
339
100
AcDbEntity
  8
平面図
370
               5
  6
Continuous
 62
               7
100
AcDbLine
 10
1761.2572847858701
 20
-3489.2554299846297
 30
0.0
 11
1761.2572847858701
 21
-3639.8306104560606
 31
0.0
  0
LINE
  5
33A
100
AcDbEntity
  8
平面図
370
               5
  6
Continuous
 62
               7
100
AcDbLine
 10
1761.2572847858701
 20
-3188.1003920675603
 30
0.0
 11
1761.2572847858701
 21
-2987.3272488066495
 31
0.0
  0
LINE
  5
33B
100
AcDbEntity
  8
平面図
370
               5
  6
Continuous
 62
               7
100
AcDbLine
 10
1259.3337805821
 20
-3489.2554299846297
 30
0.0
 11
1259.3337805821
 21
-3639.8306104560606
 31
0.0
  0
LINE
  5
33C
100
AcDbEntity
  8
平面図
370
               5
  6
Continuous
 62
               7
100
AcDbLine
 10
1259.3337805821
 20
-3188.1003920675603
 30
0.0
 11
1259.3337805821
 21
-2987.3272488066495
 31
0.0
  0
LINE
  5
33D
100
AcDbEntity
  8
平面図
370
               5
  6
Continuous
 62
               7
100
AcDbLine
 10
754.26734979726098
 20
-3489.2554299846297
 30
0.0
 11
754.26734979726098
 21
-3639.8306104560606
 31
0.0
  0
LINE
  5
33E
100
AcDbEntity
  8
平面図
370
               5
  6
Continuous
 62
               7
100
AcDbLine
 10
754.26734979726098
 20
-3188.1003920675603
 30
0.0
 11
754.26734979726098
 21
-2987.3272488066495
 31
0.0
  0
LINE
  5
33F
100
AcDbEntity
  8
平面図
370
               5
  6
Continuous
 62
               7
100
AcDbLine
 10
252.34384559368101
 20
-3489.2554299846297
 30
0.0
 11
252.34384559368101
 21
-3639.8306104560606
 31
0.0
  0
LINE
  5
340
100
AcDbEntity
  8
平面図
370
               5
  6
Continuous
 62
               7
100
AcDbLine
 10
252.34384559368101
 20
-3188.1003920675603
 30
0.0
 11
252.34384559368101
 21
-2987.3272488066495
 31
0.0
  0
LINE
  5
341
100
AcDbEntity
  8
平面図
370
               5
  6
Continuous
 62
               7
100
AcDbLine
 10
2768.2472197744901
 20
-5553.4239088027398
 30
0.0
 11
2768.2472197744901
 21
-4900.9205471533396
 31
0.0
  0
LINE
  5
342
100
AcDbEntity
  8
平面図
370
               5
  6
Continuous
 62
               7
100
AcDbLine
 10
2768.2472197744901
 20
-5402.8440513571104
 30
0.0
 11
2768.2472197744901
 21
-5553.4239088027398
 31
0.0
  0
LINE
  5
343
100
AcDbEntity
  8
平面図
370
               5
  6
Continuous
 62
               7
100
AcDbLine
 10
2266.3237155707302
 20
-5402.8440513571104
 30
0.0
 11
2266.3237155707302
 21
-5553.4239088027398
 31
0.0
  0
LINE
  5
344
100
AcDbEntity
  8
平面図
370
               5
  6
Continuous
 62
               7
100
AcDbLine
 10
2266.3237155707302
 20
-5101.6890134400501
 30
0.0
 11
2266.3237155707302
 21
-4900.9205471533396
 31
0.0
  0
LINE
  5
345
100
AcDbEntity
  8
平面図
370
               5
  6
Continuous
 62
               7
100
AcDbLine
 10
1761.2572847858701
 20
-5402.8440513571104
 30
0.0
 11
1761.2572847858701
 21
-5553.4239088027398
 31
0.0
  0
LINE
  5
346
100
AcDbEntity
  8
平面図
370
               5
  6
Continuous
 62
               7
100
AcDbLine
 10
1761.2572847858701
 20
-5101.6890134400501
 30
0.0
 11
1761.2572847858701
 21
-4900.9205471533396
 31
0.0
  0
LINE
  5
347
100
AcDbEntity
  8
平面図
370
               5
  6
Continuous
 62
               7
100
AcDbLine
 10
1259.3337805821
 20
-5402.8440513571104
 30
0.0
 11
1259.3337805821
 21
-5553.4239088027398
 31
0.0
  0
LINE
  5
348
100
AcDbEntity
  8
平面図
370
               5
  6
Continuous
 62
               7
100
AcDbLine
 10
1259.3337805821
 20
-5101.6890134400501
 30
0.0
 11
1259.3337805821
 21
-4900.9205471533396
 31
0.0
  0
LINE
  5
349
100
AcDbEntity
  8
平面図
370
               5
  6
Continuous
 62
               7
100
AcDbLine
 10
754.26734979726098
 20
-5402.8440513571104
 30
0.0
 11
754.26734979726098
 21
-5553.4239088027398
 31
0.0
  0
LINE
  5
34A
100
AcDbEntity
  8
平面図
370
               5
  6
Continuous
 62
               7
100
AcDbLine
 10
754.26734979726098
 20
-5101.6890134400501
 30
0.0
 11
754.26734979726098
 21
-4900.9205471533396
 31
0.0
  0
LINE
  5
34B
100
AcDbEntity
  8
平面図
370
               5
  6
Continuous
 62
               7
100
AcDbLine
 10
252.34384559368101
 20
-5402.8440513571104
 30
0.0
 11
252.34384559368101
 21
-5553.4239088027398
 31
0.0
  0
LINE
  5
34C
100
AcDbEntity
  8
平面図
370
               5
  6
Continuous
 62
               7
100
AcDbLine
 10
252.34384559368101
 20
-5101.6890134400501
 30
0.0
 11
252.34384559368101
 21
-4900.9205471533396
 31
0.0
  0
LINE
  5
34D
100
AcDbEntity
  8
平面図
370
               5
  6
Continuous
 62
               7
100
AcDbLine
 10
2768.2472197744901
 20
-3639.8306104560606
 30
0.0
 11
1.3774165177092073
 21
-3639.8306104560606
 31
0.0
  0
LINE
  5
34E
100
AcDbEntity
  8
平面図
370
               5
  6
Continuous
 62
               7
100
AcDbLine
 10
2768.2472197744901
 20
-2987.3272488066495
 30
0.0
 11
1.3774165177092073
 21
-2987.3272488066495
 31
0.0
  0
LINE
  5
34F
100
AcDbEntity
  8
平面図
370
               5
  6
Continuous
 62
               7
100
AcDbLine
 10
2768.2472197744901
 20
-5553.4239088027398
 30
0.0
 11
1.3774165177092073
 21
-5553.4239088027398
 31
0.0
  0
LINE
  5
350
100
AcDbEntity
  8
平面図
370
               5
  6
Continuous
 62
               7
100
AcDbLine
 10
2768.2472197744901
 20
-4900.9205471533396
 30
0.0
 11
1.3774165177092073
 21
-4900.9205471533396
 31
0.0
  0
LINE
  5
351
100
AcDbEntity
  8
平面図
370
               5
  6
Continuous
 62
               7
100
AcDbLine
 10
3022.34722148337
 20
-2683.0339612827302
 30
0.0
 11
1.3774165177092073
 21
-2683.0339612827302
 31
0.0
  0
LINE
  5
352
100
AcDbEntity
  8
平面図
370
               5
  6
Continuous
 62
               7
100
AcDbLine
 10
3022.34722148337
 20
-2030.53059963333
 30
0.0
 11
1.3774165177092073
 21
-2030.53059963333
 31
0.0
  0
LINE
  5
353
100
AcDbEntity
  8
平面図
370
               5
  6
Continuous
 62
               7
100
AcDbLine
 10
3022.34722148337
 20
-2532.4587808112901
 30
0.0
 11
3022.34722148337
 21
-2683.0339612827302
 31
0.0
  0
LINE
  5
354
100
AcDbEntity
  8
平面図
370
               5
  6
Continuous
 62
               7
100
AcDbLine
 10
2517.2807906984999
 20
-2532.4587808112901
 30
0.0
 11
2517.2807906984999
 21
-2683.0339612827302
 31
0.0
  0
LINE
  5
355
100
AcDbEntity
  8
平面図
370
               5
  6
Continuous
 62
               7
100
AcDbLine
 10
2517.2807906984999
 20
-2231.3037428940397
 30
0.0
 11
2517.2807906984999
 21
-2030.53059963333
 31
0.0
  0
LINE
  5
356
100
AcDbEntity
  8
平面図
370
               5
  6
Continuous
 62
               7
100
AcDbLine
 10
2015.35728649474
 20
-2532.4587808112901
 30
0.0
 11
2015.35728649474
 21
-2683.0339612827302
 31
0.0
  0
LINE
  5
357
100
AcDbEntity
  8
平面図
370
               5
  6
Continuous
 62
               7
100
AcDbLine
 10
2015.35728649474
 20
-2231.3037428940397
 30
0.0
 11
2015.35728649474
 21
-2030.53059963333
 31
0.0
  0
LINE
  5
358
100
AcDbEntity
  8
平面図
370
               5
  6
Continuous
 62
               7
100
AcDbLine
 10
1510.2908557098999
 20
-2532.4587808112901
 30
0.0
 11
1510.2908557098999
 21
-2683.0339612827302
 31
0.0
  0
LINE
  5
359
100
AcDbEntity
  8
平面図
370
               5
  6
Continuous
 62
               7
100
AcDbLine
 10
1510.2908557098999
 20
-2231.3037428940397
 30
0.0
 11
1510.2908557098999
 21
-2030.53059963333
 31
0.0
  0
LINE
  5
35A
100
AcDbEntity
  8
平面図
370
               5
  6
Continuous
 62
               7
100
AcDbLine
 10
1008.36735150612
 20
-2532.4587808112901
 30
0.0
 11
1008.36735150612
 21
-2683.0339612827302
 31
0.0
  0
LINE
  5
35B
100
AcDbEntity
  8
平面図
370
               5
  6
Continuous
 62
               7
100
AcDbLine
 10
1008.36735150612
 20
-2231.3037428940397
 30
0.0
 11
1008.36735150612
 21
-2030.53059963333
 31
0.0
  0
LINE
  5
35C
100
AcDbEntity
  8
平面図
370
               5
  6
Continuous
 62
               7
100
AcDbLine
 10
503.30092072148199
 20
-2231.3037428940397
 30
0.0
 11
503.30092072148199
 21
-2030.53059963333
 31
0.0
  0
LINE
  5
35D
100
AcDbEntity
  8
平面図
370
               5
  6
Continuous
 62
               7
100
AcDbLine
 10
3022.34722148337
 20
-2532.4587808112901
 30
0.0
 11
3022.34722148337
 21
-2030.53059963333
 31
0.0
  0
LINE
  5
35E
100
AcDbEntity
  8
平面図
370
               5
  6
Continuous
 62
               7
100
AcDbLine
 10
3878.7572990263302
 20
-5572.2440524963504
 30
0.0
 11
3980.0272262107601
 21
-6103.9740864234
 31
0.0
  0
LINE
  5
35F
100
AcDbEntity
  8
平面図
370
               5
  6
Continuous
 62
               7
100
AcDbLine
 10
4412.0539453515603
 20
-5672.6306241267002
 30
0.0
 11
4374.4043040161696
 21
-5474.9957304730406
 31
0.0
  0
LINE
  5
360
100
AcDbEntity
  8
平面図
370
               5
  6
Continuous
 62
               7
100
AcDbLine
 10
4904.5673777086004
 20
-5578.5205517102795
 30
0.0
 11
4866.9270903211
 21
-5380.8856580566198
 31
0.0
  0
LINE
  5
361
100
AcDbEntity
  8
平面図
370
               5
  6
Continuous
 62
               7
100
AcDbLine
 10
3878.7572990263302
 20
-5572.2440524963504
 30
0.0
 11
5359.440522678
 21
-5283.6373360331409
 31
0.0
  0
LINE
  5
362
100
AcDbEntity
  8
平面図
370
               5
  6
Continuous
 62
               7
100
AcDbLine
 10
6968.7405335005997
 20
-5638.1239093723498
 30
0.0
 11
5488.0573098490004
 21
-5926.7306258355502
 31
0.0
  0
LINE
  5
363
100
AcDbEntity
  8
平面図
370
               5
  6
Continuous
 62
               7
100
AcDbLine
 10
5400.2237366464997
 20
-5481.2722296869788
 30
0.0
 11
5362.5740953110999
 21
-5283.6373360331409
 31
0.0
  0
LINE
  5
364
100
AcDbEntity
  8
平面図
370
               5
  6
Continuous
 62
               7
100
AcDbLine
 10
5895.8707416363004
 20
-5384.0239076634998
 30
0.0
 11
5855.0875276678998
 21
-5189.5272636167201
 31
0.0
  0
LINE
  5
365
100
AcDbEntity
  8
平面図
370
               5
  6
Continuous
 62
               7
100
AcDbLine
 10
6447.9875316551997
 20
-5584.7923739501994
 30
0.0
 11
6473.0841745629004
 21
-5735.3722313958306
 31
0.0
  0
LINE
  5
366
100
AcDbEntity
  8
平面図
370
               5
  6
Continuous
 62
               7
100
AcDbLine
 10
6388.3841739932996
 20
-5289.9138352470791
 30
0.0
 11
6350.7438866057
 21
-5092.2789415932411
 31
0.0
  0
LINE
  5
367
100
AcDbEntity
  8
平面図
370
               5
  6
Continuous
 62
               7
100
AcDbLine
 10
6968.7405335005997
 20
-5638.1239093723498
 30
0.0
 11
6940.5009640120998
 21
-5490.6823015337804
 31
0.0
  0
LINE
  5
368
100
AcDbEntity
  8
平面図
370
               5
  6
Continuous
 62
               7
100
AcDbLine
 10
6846.3908915954999
 20
-4995.0306195699504
 30
0.0
 11
6935.9758518074996
 21
-5508.1224688061111
 31
0.0
  0
LINE
  5
369
100
AcDbEntity
  8
平面図
370
               5
  6
Continuous
 62
               7
100
AcDbLine
 10
6846.3908915954999
 20
-4995.0306195699504
 30
0.0
 11
5362.5740953110999
 21
-5283.6373360331409
 31
0.0
  0
LINE
  5
36A
100
AcDbEntity
  8
平面図
370
               5
  6
Continuous
 62
               7
100
AcDbLine
 10
4004.2405135642398
 20
-5258.5406931255993
 30
0.0
 11
5488.0573098490004
 21
-4969.9339766622097
 31
0.0
  0
LINE
  5
36B
100
AcDbEntity
  8
平面図
370
               5
  6
Continuous
 62
               7
100
AcDbLine
 10
4004.2405135642398
 20
-5258.5406931255993
 30
0.0
 11
3972.86737144273
 21
-5107.9655126539792
 31
0.0
  0
LINE
  5
36C
100
AcDbEntity
  8
平面図
370
               5
  6
Continuous
 62
               7
100
AcDbLine
 10
3878.7572990263302
 20
-4615.4520802972002
 30
0.0
 11
3976.4497158980398
 21
-5128.3858237540289
 31
0.0
  0
LINE
  5
36D
100
AcDbEntity
  8
平面図
370
               5
  6
Continuous
 62
               7
100
AcDbLine
 10
4468.5237303805998
 20
-5013.8554402375603
 30
0.0
 11
4496.7539459211903
 21
-5161.2923711021203
 31
0.0
  0
LINE
  5
36E
100
AcDbEntity
  8
平面図
370
               5
  6
Continuous
 62
               7
100
AcDbLine
 10
4412.0539453515603
 20
-4715.8339749533698
 30
0.0
 11
4374.4043040161696
 21
-4518.2037582737103
 31
0.0
  0
LINE
  5
36F
100
AcDbEntity
  8
平面図
370
               5
  6
Continuous
 62
               7
100
AcDbLine
 10
4964.1707353703996
 20
-4916.6071182142596
 30
0.0
 11
4992.4009509110001
 21
-5067.1822986856996
 31
0.0
  0
LINE
  5
370
100
AcDbEntity
  8
平面図
370
               5
  6
Continuous
 62
               7
100
AcDbLine
 10
4904.5673777086004
 20
-4621.7239025369399
 30
0.0
 11
4866.9270903211
 21
-4424.0890088831002
 31
0.0
  0
LINE
  5
371
100
AcDbEntity
  8
平面図
370
               5
  6
Continuous
 62
               7
100
AcDbLine
 10
3878.7572990263302
 20
-4615.4520802972002
 30
0.0
 11
5359.440522678
 21
-4326.8406868598104
 31
0.0
  0
LINE
  5
372
100
AcDbEntity
  8
平面図
370
               5
  6
Continuous
 62
               7
100
AcDbLine
 10
6473.0841745629004
 20
-4778.5755822225001
 30
0.0
 11
5488.0573098490004
 21
-4969.9339766622097
 31
0.0
  0
LINE
  5
373
100
AcDbEntity
  8
平面図
370
               5
  6
Continuous
 62
               7
100
AcDbLine
 10
5400.2237366464997
 20
-4524.4755805136401
 30
0.0
 11
5362.5740953110999
 21
-4326.8406868598104
 31
0.0
  0
LINE
  5
374
100
AcDbEntity
  8
平面図
370
               5
  6
Continuous
 62
               7
100
AcDbLine
 10
5459.8270943086
 20
-4822.4923688236504
 30
0.0
 11
5488.0573098490004
 21
-4969.9339766622097
 31
0.0
  0
LINE
  5
375
100
AcDbEntity
  8
平面図
370
               5
  6
Continuous
 62
               7
100
AcDbLine
 10
5952.3405266652999
 20
-4725.2440468003497
 30
0.0
 11
5980.5707422058003
 21
-4872.6856546389199
 31
0.0
  0
LINE
  5
376
100
AcDbEntity
  8
平面図
370
               5
  6
Continuous
 62
               7
100
AcDbLine
 10
5895.8707416363004
 20
-4427.2272584901702
 30
0.0
 11
5855.0875276678998
 21
-4232.7306144433796
 31
0.0
  0
LINE
  5
377
100
AcDbEntity
  8
平面図
370
               5
  6
Continuous
 62
               7
100
AcDbLine
 10
6473.0841745629004
 20
-4778.5755822225001
 30
0.0
 11
6447.9875316551997
 21
-4627.9957247768598
 31
0.0
  0
LINE
  5
378
100
AcDbEntity
  8
平面図
370
               5
  6
Continuous
 62
               7
100
AcDbLine
 10
6350.7438866057
 20
-4135.4822924198997
 30
0.0
 11
6449.5237509023
 21
-4654.1379491733596
 31
0.0
  0
LINE
  5
379
100
AcDbEntity
  8
平面図
370
               5
  6
Continuous
 62
               7
100
AcDbLine
 10
6350.7438866057
 20
-4135.4822924198997
 30
0.0
 11
5362.5740953110999
 21
-4326.8406868598104
 31
0.0
  0
LINE
  5
37A
100
AcDbEntity
  8
平面図
370
               5
  6
Continuous
 62
               7
100
AcDbLine
 10
4004.2405135642398
 20
-4301.7440439522597
 30
0.0
 11
5488.0573098490004
 21
-4013.1373274888701
 31
0.0
  0
LINE
  5
37B
100
AcDbEntity
  8
平面図
370
               5
  6
Continuous
 62
               7
100
AcDbLine
 10
4004.2405135642398
 20
-4301.7440439522597
 30
0.0
 11
3972.86737144273
 21
-4151.1688634806396
 31
0.0
  0
LINE
  5
37C
100
AcDbEntity
  8
平面図
370
               5
  6
Continuous
 62
               7
100
AcDbLine
 10
3878.7572990263302
 20
-3658.6554311238497
 30
0.0
 11
3981.0326962979302
 21
-4195.6520995033998
 31
0.0
  0
LINE
  5
37D
100
AcDbEntity
  8
平面図
370
               5
  6
Continuous
 62
               7
100
AcDbLine
 10
4468.5237303805998
 20
-4057.0587910642198
 30
0.0
 11
4496.7539459211903
 21
-4204.50039890278
 31
0.0
  0
LINE
  5
37E
100
AcDbEntity
  8
平面図
370
               5
  6
Continuous
 62
               7
100
AcDbLine
 10
4412.0539453515603
 20
-3759.0373257800302
 30
0.0
 11
4374.4043040161696
 21
-3561.4071091003798
 31
0.0
  0
LINE
  5
37F
100
AcDbEntity
  8
平面図
370
               5
  6
Continuous
 62
               7
100
AcDbLine
 10
4964.1707353703996
 20
-3959.81046904092
 30
0.0
 11
4992.4009509110001
 21
-4110.38564951236
 31
0.0
  0
LINE
  5
380
100
AcDbEntity
  8
平面図
370
               5
  6
Continuous
 62
               7
100
AcDbLine
 10
4904.5673777086004
 20
-3664.9272533636004
 30
0.0
 11
4866.9270903211
 21
-3467.2923597097606
 31
0.0
  0
LINE
  5
381
100
AcDbEntity
  8
平面図
370
               5
  6
Continuous
 62
               7
100
AcDbLine
 10
3878.7572990263302
 20
-3658.6554311238497
 30
0.0
 11
5359.440522678
 21
-3370.0440376864599
 31
0.0
  0
LINE
  5
382
100
AcDbEntity
  8
平面図
370
               5
  6
Continuous
 62
               7
100
AcDbLine
 10
5980.5707422058003
 20
-3915.8890054655794
 30
0.0
 11
5488.0573098490004
 21
-4013.1373274888701
 31
0.0
  0
LINE
  5
383
100
AcDbEntity
  8
平面図
370
               5
  6
Continuous
 62
               7
100
AcDbLine
 10
5400.2237366464997
 20
-3567.6789313402996
 30
0.0
 11
5362.5740953110999
 21
-3370.0440376864599
 31
0.0
  0
LINE
  5
384
100
AcDbEntity
  8
平面図
370
               5
  6
Continuous
 62
               7
100
AcDbLine
 10
5459.8270943086
 20
-3865.7003966243201
 30
0.0
 11
5488.0573098490004
 21
-4013.1373274888701
 31
0.0
  0
LINE
  5
385
100
AcDbEntity
  8
平面図
370
               5
  6
Continuous
 62
               7
100
AcDbLine
 10
5855.0875276678998
 20
-3275.9339652700501
 30
0.0
 11
5362.5740953110999
 21
-3370.0440376864599
 31
0.0
  0
LINE
  5
386
100
AcDbEntity
  8
平面図
370
               5
  6
Continuous
 62
               7
100
AcDbLine
 10
5488.0573098490004
 20
-3056.3406783155506
 30
0.0
 11
4004.2405135642398
 21
-3344.9520717529294
 31
0.0
  0
LINE
  5
387
100
AcDbEntity
  8
平面図
370
               5
  6
Continuous
 62
               7
100
AcDbLine
 10
4004.2405135642398
 20
-3344.9520717529294
 30
0.0
 11
3972.86737144273
 21
-3194.3722143073101
 31
0.0
  0
LINE
  5
388
100
AcDbEntity
  8
平面図
370
               5
  6
Continuous
 62
               7
100
AcDbLine
 10
3878.7572990263302
 20
-2701.85878195033
 30
0.0
 11
3983.96563922831
 21
-3254.2548584400802
 31
0.0
  0
LINE
  5
389
100
AcDbEntity
  8
平面図
370
               5
  6
Continuous
 62
               7
100
AcDbLine
 10
4468.5237303805998
 20
-3100.2621418908793
 30
0.0
 11
4496.7539459211903
 21
-3247.7037497294596
 31
0.0
  0
LINE
  5
38A
100
AcDbEntity
  8
平面図
370
               5
  6
Continuous
 62
               7
100
AcDbLine
 10
4412.0539453515603
 20
-2802.2406766066897
 30
0.0
 11
4374.4043040161696
 21
-2604.6104599270402
 31
0.0
  0
LINE
  5
38B
100
AcDbEntity
  8
平面図
370
               5
  6
Continuous
 62
               7
100
AcDbLine
 10
4964.1707353703996
 20
-3003.0138198674003
 30
0.0
 11
4992.4009509110001
 21
-3153.5890003390296
 31
0.0
  0
LINE
  5
38C
100
AcDbEntity
  8
平面図
370
               5
  6
Continuous
 62
               7
100
AcDbLine
 10
4904.5673777086004
 20
-2708.1306041902699
 30
0.0
 11
4866.9270903211
 21
-2510.5003875106204
 31
0.0
  0
LINE
  5
38D
100
AcDbEntity
  8
平面図
370
               5
  6
Continuous
 62
               7
100
AcDbLine
 10
5362.5740953110999
 20
-2413.2520654871505
 30
0.0
 11
3878.7572990263302
 21
-2701.85878195033
 31
0.0
  0
LINE
  5
38E
100
AcDbEntity
  8
平面図
370
               5
  6
Continuous
 62
               7
100
AcDbLine
 10
5362.5740953110999
 20
-2413.2520654871505
 30
0.0
 11
5472.7393137668996
 21
-2991.5305090992397
 31
0.0
  0
LINE
  5
38F
100
AcDbEntity
  8
平面図
370
               5
  6
Continuous
 62
               7
100
AcDbLine
 10
5488.0573098490004
 20
-3056.3406783155506
 30
0.0
 11
5459.8270943086
 21
-2908.9037474509796
 31
0.0
  0
LINE
  5
390
100
AcDbEntity
  8
平面図
370
               5
  6
Continuous
 62
               7
100
AcDbLine
 10
5980.5707422058003
 20
-3915.8890054655794
 30
0.0
 11
5952.3405266652999
 21
-3768.4520746010103
 31
0.0
  0
LINE
  5
391
100
AcDbEntity
  8
平面図
370
               5
  6
Continuous
 62
               7
100
AcDbLine
 10
5855.0875276678998
 20
-3275.9339652700501
 30
0.0
 11
5964.1819411916003
 21
-3796.2092268282695
 31
0.0
  0
LINE
  5
392
100
AcDbEntity
  8
平面図
370
               5
  6
Continuous
 62
               7
100
AcDbLine
 10
4004.2405135642398
 20
-6215.3373422989398
 30
0.0
 11
5488.0573098490004
 21
-5926.7306258355502
 31
0.0
  0
LINE
  5
393
100
AcDbEntity
  8
平面図
370
               5
  6
Continuous
 62
               7
100
AcDbLine
 10
4004.2405135642398
 20
-6215.3373422989398
 30
0.0
 11
3972.86737144273
 21
-6064.7621618273197
 31
0.0
  0
LINE
  5
394
100
AcDbEntity
  8
平面図
370
               5
  6
Continuous
 62
               7
100
AcDbLine
 10
4468.5237303805998
 20
-5970.6474124368897
 30
0.0
 11
4496.7539459211903
 21
-6118.089020275459
 31
0.0
  0
LINE
  5
395
100
AcDbEntity
  8
平面図
370
               5
  6
Continuous
 62
               7
100
AcDbLine
 10
4964.1707353703996
 20
-5873.4037673876001
 30
0.0
 11
4992.4009509110001
 21
-6023.978947859031
 31
0.0
  0
LINE
  5
396
100
AcDbEntity
  8
平面図
370
               5
  6
Continuous
 62
               7
100
AcDbLine
 10
5459.8270943086
 20
-5779.28901799699
 30
0.0
 11
5488.0573098490004
 21
-5926.7306258355502
 31
0.0
  0
LINE
  5
397
100
AcDbEntity
  8
平面図
370
               5
  6
Continuous
 62
               7
100
AcDbLine
 10
5952.3405266652999
 20
-5682.0406959736893
 30
0.0
 11
5980.5707422058003
 21
-5829.4823038122604
 31
0.0
  0
LINE
  5
398
100
AcDbEntity
  8
平面図
370
               5
  6
Continuous
 62
               7
100
AcDbLine
 10
1.1059769499588583
 20
-2231.3037428940397
 30
0.0
 11
1.1059769499588583
 21
-2030.53059963333
 31
0.0
  0
LINE
  5
399
100
AcDbEntity
  8
平面図
370
               5
  6
Continuous
 62
               7
100
AcDbLine
 10
1.1059769499588583
 20
-2532.4587808112901
 30
0.0
 11
1.1059769499588583
 21
-2683.0339612827302
 31
0.0
  0
LINE
  5
39A
100
AcDbEntity
  8
平面図
370
               5
  6
Continuous
 62
               7
100
AcDbLine
 10
503.30092072148199
 20
-4446.0520791579602
 30
0.0
 11
503.30092072148199
 21
-4596.6272596294002
 31
0.0
  0
LINE
  5
39B
100
AcDbEntity
  8
平面図
370
               5
  6
Continuous
 62
               7
100
AcDbLine
 10
503.30092072148199
 20
-4144.8923642666996
 30
0.0
 11
503.30092072148199
 21
-3944.12389798
 31
0.0
  0
LINE
  5
39C
100
AcDbEntity
  8
平面図
370
               5
  6
Continuous
 62
               7
100
AcDbLine
 10
3.821675795588817
 20
-4445.8360456149703
 30
0.0
 11
3.821675795588817
 21
-4596.4112260864003
 31
0.0
  0
LINE
  5
39D
100
AcDbEntity
  8
平面図
370
               5
  6
Continuous
 62
               7
100
AcDbLine
 10
3.821675795588817
 20
-4144.6763307236997
 30
0.0
 11
3.821675795588817
 21
-3943.9078644370002
 31
0.0
  0
LINE
  5
39E
100
AcDbEntity
  8
平面図
370
               5
  6
Continuous
 62
               7
100
AcDbLine
 10
-3019.5830344997098
 20
-4596.62500873721
 30
0.0
 11
1.3747666347007907
 21
-4596.62500873721
 31
0.0
  0
LINE
  5
39F
100
AcDbEntity
  8
平面図
370
               5
  6
Continuous
 62
               7
100
AcDbLine
 10
-3019.5830344997098
 20
-3944.1222194414995
 30
0.0
 11
1.3747666347007907
 21
-3944.1222194414995
 31
0.0
  0
LINE
  5
3A0
100
AcDbEntity
  8
平面図
370
               5
  6
Continuous
 62
               7
100
AcDbLine
 10
-3019.5830344997098
 20
-4144.8905096209601
 30
0.0
 11
-3019.5830344997098
 21
-3944.1222194414995
 31
0.0
  0
LINE
  5
3A1
100
AcDbEntity
  8
平面図
370
               5
  6
Continuous
 62
               7
100
AcDbLine
 10
-3019.5830344997098
 20
-4446.0499603450999
 30
0.0
 11
-3019.5830344997098
 21
-4596.62500873721
 31
0.0
  0
LINE
  5
3A2
100
AcDbEntity
  8
平面図
370
               5
  6
Continuous
 62
               7
100
AcDbLine
 10
-2514.5264006818202
 20
-4446.0499603450999
 30
0.0
 11
-2514.5264006818202
 21
-4596.62500873721
 31
0.0
  0
LINE
  5
3A3
100
AcDbEntity
  8
平面図
370
               5
  6
Continuous
 62
               7
100
AcDbLine
 10
-2514.5264006818202
 20
-4144.8905096209601
 30
0.0
 11
-2514.5264006818202
 21
-3944.1222194414995
 31
0.0
  0
LINE
  5
3A4
100
AcDbEntity
  8
平面図
370
               5
  6
Continuous
 62
               7
100
AcDbLine
 10
-2012.60333674822
 20
-4446.0499603450999
 30
0.0
 11
-2012.60333674822
 21
-4596.62500873721
 31
0.0
  0
LINE
  5
3A5
100
AcDbEntity
  8
平面図
370
               5
  6
Continuous
 62
               7
100
AcDbLine
 10
-2012.60333674822
 20
-4144.8905096209601
 30
0.0
 11
-2012.60333674822
 21
-3944.1222194414995
 31
0.0
  0
LINE
  5
3A6
100
AcDbEntity
  8
平面図
370
               5
  6
Continuous
 62
               7
100
AcDbLine
 10
-1507.5373489904
 20
-4446.0499603450999
 30
0.0
 11
-1507.5373489904
 21
-4596.62500873721
 31
0.0
  0
LINE
  5
3A7
100
AcDbEntity
  8
平面図
370
               5
  6
Continuous
 62
               7
100
AcDbLine
 10
-1507.5373489904
 20
-4144.8905096209601
 30
0.0
 11
-1507.5373489904
 21
-3944.1222194414995
 31
0.0
  0
LINE
  5
3A8
100
AcDbEntity
  8
平面図
370
               5
  6
Continuous
 62
               7
100
AcDbLine
 10
-1005.6142850567699
 20
-4446.0499603450999
 30
0.0
 11
-1005.6142850567699
 21
-4596.62500873721
 31
0.0
  0
LINE
  5
3A9
100
AcDbEntity
  8
平面図
370
               5
  6
Continuous
 62
               7
100
AcDbLine
 10
-1005.6142850567699
 20
-4144.8905096209601
 30
0.0
 11
-1005.6142850567699
 21
-3944.1222194414995
 31
0.0
  0
LINE
  5
3AA
100
AcDbEntity
  8
平面図
370
               5
  6
Continuous
 62
               7
100
AcDbLine
 10
-500.54829729895198
 20
-4446.0499603450999
 30
0.0
 11
-500.54829729895198
 21
-4596.62500873721
 31
0.0
  0
LINE
  5
3AB
100
AcDbEntity
  8
平面図
370
               5
  6
Continuous
 62
               7
100
AcDbLine
 10
-500.54829729895198
 20
-4144.8905096209601
 30
0.0
 11
-500.54829729895198
 21
-3944.1222194414995
 31
0.0
  0
LINE
  5
3AC
100
AcDbEntity
  8
平面図
370
               5
  6
Continuous
 62
               7
100
AcDbLine
 10
-2765.48325567867
 20
-3188.0993766868405
 30
0.0
 11
-2765.48325567867
 21
-2987.3264095374207
 31
0.0
  0
LINE
  5
3AD
100
AcDbEntity
  8
平面図
370
               5
  6
Continuous
 62
               7
100
AcDbLine
 10
-2765.48325567867
 20
-3489.2541504410301
 30
0.0
 11
-2765.48325567867
 21
-3639.8291988331193
 31
0.0
  0
LINE
  5
3AE
100
AcDbEntity
  8
平面図
370
               5
  6
Continuous
 62
               7
100
AcDbLine
 10
-2263.5601917450399
 20
-3489.2541504410301
 30
0.0
 11
-2263.5601917450399
 21
-3639.8291988331193
 31
0.0
  0
LINE
  5
3AF
100
AcDbEntity
  8
平面図
370
               5
  6
Continuous
 62
               7
100
AcDbLine
 10
-2263.5601917450399
 20
-3188.0993766868405
 30
0.0
 11
-2263.5601917450399
 21
-2987.3264095374207
 31
0.0
  0
LINE
  5
3B0
100
AcDbEntity
  8
平面図
370
               5
  6
Continuous
 62
               7
100
AcDbLine
 10
-1758.5035579271801
 20
-3489.2541504410301
 30
0.0
 11
-1758.5035579271801
 21
-3639.8291988331193
 31
0.0
  0
LINE
  5
3B1
100
AcDbEntity
  8
平面図
370
               5
  6
Continuous
 62
               7
100
AcDbLine
 10
-1758.5035579271801
 20
-3188.0993766868405
 30
0.0
 11
-1758.5035579271801
 21
-2987.3264095374207
 31
0.0
  0
LINE
  5
3B2
100
AcDbEntity
  8
平面図
370
               5
  6
Continuous
 62
               7
100
AcDbLine
 10
-1256.5711400535899
 20
-3489.2541504410301
 30
0.0
 11
-1256.5711400535899
 21
-3639.8291988331193
 31
0.0
  0
LINE
  5
3B3
100
AcDbEntity
  8
平面図
370
               5
  6
Continuous
 62
               7
100
AcDbLine
 10
-1256.5711400535899
 20
-3188.0993766868405
 30
0.0
 11
-1256.5711400535899
 21
-2987.3264095374207
 31
0.0
  0
LINE
  5
3B4
100
AcDbEntity
  8
平面図
370
               5
  6
Continuous
 62
               7
100
AcDbLine
 10
-751.51450623575101
 20
-3489.2541504410301
 30
0.0
 11
-751.51450623575101
 21
-3639.8291988331193
 31
0.0
  0
LINE
  5
3B5
100
AcDbEntity
  8
平面図
370
               5
  6
Continuous
 62
               7
100
AcDbLine
 10
-751.51450623575101
 20
-3188.0993766868405
 30
0.0
 11
-751.51450623575101
 21
-2987.3264095374207
 31
0.0
  0
LINE
  5
3B6
100
AcDbEntity
  8
平面図
370
               5
  6
Continuous
 62
               7
100
AcDbLine
 10
-249.58208836214897
 20
-3489.2541504410301
 30
0.0
 11
-249.58208836214897
 21
-3639.8291988331193
 31
0.0
  0
LINE
  5
3B7
100
AcDbEntity
  8
平面図
370
               5
  6
Continuous
 62
               7
100
AcDbLine
 10
-249.58208836214897
 20
-3188.0993766868405
 30
0.0
 11
-249.58208836214897
 21
-2987.3264095374207
 31
0.0
  0
LINE
  5
3B8
100
AcDbEntity
  8
平面図
370
               5
  6
Continuous
 62
               7
100
AcDbLine
 10
-2765.48325567867
 20
-5101.6863195250507
 30
0.0
 11
-2765.48325567867
 21
-4900.9180293455902
 31
0.0
  0
LINE
  5
3B9
100
AcDbEntity
  8
平面図
370
               5
  6
Continuous
 62
               7
100
AcDbLine
 10
-2765.48325567867
 20
-5402.8410932792203
 30
0.0
 11
-2765.48325567867
 21
-5553.4208186413007
 31
0.0
  0
LINE
  5
3BA
100
AcDbEntity
  8
平面図
370
               5
  6
Continuous
 62
               7
100
AcDbLine
 10
-2263.5601917450399
 20
-5402.8410932792203
 30
0.0
 11
-2263.5601917450399
 21
-5553.4208186413007
 31
0.0
  0
LINE
  5
3BB
100
AcDbEntity
  8
平面図
370
               5
  6
Continuous
 62
               7
100
AcDbLine
 10
-2263.5601917450399
 20
-5101.6863195250507
 30
0.0
 11
-2263.5601917450399
 21
-4900.9180293455902
 31
0.0
  0
LINE
  5
3BC
100
AcDbEntity
  8
平面図
370
               5
  6
Continuous
 62
               7
100
AcDbLine
 10
-1758.5035579271801
 20
-5402.8410932792203
 30
0.0
 11
-1758.5035579271801
 21
-5553.4208186413007
 31
0.0
  0
LINE
  5
3BD
100
AcDbEntity
  8
平面図
370
               5
  6
Continuous
 62
               7
100
AcDbLine
 10
-1758.5035579271801
 20
-5101.6863195250507
 30
0.0
 11
-1758.5035579271801
 21
-4900.9180293455902
 31
0.0
  0
LINE
  5
3BE
100
AcDbEntity
  8
平面図
370
               5
  6
Continuous
 62
               7
100
AcDbLine
 10
-1256.5711400535899
 20
-5402.8410932792203
 30
0.0
 11
-1256.5711400535899
 21
-5553.4208186413007
 31
0.0
  0
LINE
  5
3BF
100
AcDbEntity
  8
平面図
370
               5
  6
Continuous
 62
               7
100
AcDbLine
 10
-1256.5711400535899
 20
-5101.6863195250507
 30
0.0
 11
-1256.5711400535899
 21
-4900.9180293455902
 31
0.0
  0
LINE
  5
3C0
100
AcDbEntity
  8
平面図
370
               5
  6
Continuous
 62
               7
100
AcDbLine
 10
-751.51450623575101
 20
-5402.8410932792203
 30
0.0
 11
-751.51450623575101
 21
-5553.4208186413007
 31
0.0
  0
LINE
  5
3C1
100
AcDbEntity
  8
平面図
370
               5
  6
Continuous
 62
               7
100
AcDbLine
 10
-751.51450623575101
 20
-5101.6863195250507
 30
0.0
 11
-751.51450623575101
 21
-4900.9180293455902
 31
0.0
  0
LINE
  5
3C2
100
AcDbEntity
  8
平面図
370
               5
  6
Continuous
 62
               7
100
AcDbLine
 10
-249.58208836214897
 20
-5402.8410932792203
 30
0.0
 11
-249.58208836214897
 21
-5553.4208186413007
 31
0.0
  0
LINE
  5
3C3
100
AcDbEntity
  8
平面図
370
               5
  6
Continuous
 62
               7
100
AcDbLine
 10
-249.58208836214897
 20
-5101.6863195250507
 30
0.0
 11
-249.58208836214897
 21
-4900.9180293455902
 31
0.0
  0
LINE
  5
3C4
100
AcDbEntity
  8
平面図
370
               5
  6
Continuous
 62
               7
100
AcDbLine
 10
-2765.48325567867
 20
-3639.8291988331193
 30
0.0
 11
1.3747666347007907
 21
-3639.8291988331193
 31
0.0
  0
LINE
  5
3C5
100
AcDbEntity
  8
平面図
370
               5
  6
Continuous
 62
               7
100
AcDbLine
 10
-2765.48325567867
 20
-2987.3264095374207
 30
0.0
 11
1.3747666347007907
 21
-2987.3264095374207
 31
0.0
  0
LINE
  5
3C6
100
AcDbEntity
  8
平面図
370
               5
  6
Continuous
 62
               7
100
AcDbLine
 10
-2765.48325567867
 20
-5553.4208186413007
 30
0.0
 11
1.3747666347007907
 21
-5553.4208186413007
 31
0.0
  0
LINE
  5
3C7
100
AcDbEntity
  8
平面図
370
               5
  6
Continuous
 62
               7
100
AcDbLine
 10
-2765.48325567867
 20
-4900.9180293455902
 30
0.0
 11
1.3747666347007907
 21
-4900.9180293455902
 31
0.0
  0
LINE
  5
3C8
100
AcDbEntity
  8
平面図
370
               5
  6
Continuous
 62
               7
100
AcDbLine
 10
-3019.5830344997098
 20
-2683.0333889290296
 30
0.0
 11
1.3747666347007907
 21
-2683.0333889290296
 31
0.0
  0
LINE
  5
3C9
100
AcDbEntity
  8
平面図
370
               5
  6
Continuous
 62
               7
100
AcDbLine
 10
-3019.5830344997098
 20
-2030.53059963333
 30
0.0
 11
1.3747666347007907
 21
-2030.53059963333
 31
0.0
  0
LINE
  5
3CA
100
AcDbEntity
  8
平面図
370
               5
  6
Continuous
 62
               7
100
AcDbLine
 10
-3019.5830344997098
 20
-2532.4583405369403
 30
0.0
 11
-3019.5830344997098
 21
-2683.0333889290296
 31
0.0
  0
LINE
  5
3CB
100
AcDbEntity
  8
平面図
370
               5
  6
Continuous
 62
               7
100
AcDbLine
 10
-2514.5264006818202
 20
-2532.4583405369403
 30
0.0
 11
-2514.5264006818202
 21
-2683.0333889290296
 31
0.0
  0
LINE
  5
3CC
100
AcDbEntity
  8
平面図
370
               5
  6
Continuous
 62
               7
100
AcDbLine
 10
-2514.5264006818202
 20
-2231.3035667827598
 30
0.0
 11
-2514.5264006818202
 21
-2030.53059963333
 31
0.0
  0
LINE
  5
3CD
100
AcDbEntity
  8
平面図
370
               5
  6
Continuous
 62
               7
100
AcDbLine
 10
-2012.60333674822
 20
-2532.4583405369403
 30
0.0
 11
-2012.60333674822
 21
-2683.0333889290296
 31
0.0
  0
LINE
  5
3CE
100
AcDbEntity
  8
平面図
370
               5
  6
Continuous
 62
               7
100
AcDbLine
 10
-2012.60333674822
 20
-2231.3035667827598
 30
0.0
 11
-2012.60333674822
 21
-2030.53059963333
 31
0.0
  0
LINE
  5
3CF
100
AcDbEntity
  8
平面図
370
               5
  6
Continuous
 62
               7
100
AcDbLine
 10
-1507.5373489904
 20
-2532.4583405369403
 30
0.0
 11
-1507.5373489904
 21
-2683.0333889290296
 31
0.0
  0
LINE
  5
3D0
100
AcDbEntity
  8
平面図
370
               5
  6
Continuous
 62
               7
100
AcDbLine
 10
-1507.5373489904
 20
-2231.3035667827598
 30
0.0
 11
-1507.5373489904
 21
-2030.53059963333
 31
0.0
  0
LINE
  5
3D1
100
AcDbEntity
  8
平面図
370
               5
  6
Continuous
 62
               7
100
AcDbLine
 10
-1005.6142850567699
 20
-2532.4583405369403
 30
0.0
 11
-1005.6142850567699
 21
-2683.0333889290296
 31
0.0
  0
LINE
  5
3D2
100
AcDbEntity
  8
平面図
370
               5
  6
Continuous
 62
               7
100
AcDbLine
 10
-1005.6142850567699
 20
-2231.3035667827598
 30
0.0
 11
-1005.6142850567699
 21
-2030.53059963333
 31
0.0
  0
LINE
  5
3D3
100
AcDbEntity
  8
平面図
370
               5
  6
Continuous
 62
               7
100
AcDbLine
 10
-500.54829729895198
 20
-2532.4583405369403
 30
0.0
 11
-500.54829729895198
 21
-2683.0333889290296
 31
0.0
  0
LINE
  5
3D4
100
AcDbEntity
  8
平面図
370
               5
  6
Continuous
 62
               7
100
AcDbLine
 10
-500.54829729895198
 20
-2231.3035667827598
 30
0.0
 11
-500.54829729895198
 21
-2030.53059963333
 31
0.0
  0
LINE
  5
3D5
100
AcDbEntity
  8
平面図
370
               5
  6
Continuous
 62
               7
100
AcDbLine
 10
-3019.5830344997098
 20
-2231.3035667827598
 30
0.0
 11
-3019.5830344997098
 21
-2030.53059963333
 31
0.0
  0
LINE
  5
3D6
100
AcDbEntity
  8
平面図
370
               5
  6
Continuous
 62
               7
100
AcDbLine
 10
-3875.9923608290601
 20
-5572.2409458265602
 30
0.0
 11
-3913.6419691395795
 21
-5769.8756661218004
 31
0.0
  0
LINE
  5
3D7
100
AcDbEntity
  8
平面図
370
               5
  6
Continuous
 62
               7
100
AcDbLine
 10
-4409.2885393648003
 20
-5672.6274294012792
 30
0.0
 11
-4371.6482849942404
 21
-5474.9927091060499
 31
0.0
  0
LINE
  5
3D8
100
AcDbEntity
  8
平面図
370
               5
  6
Continuous
 62
               7
100
AcDbLine
 10
-4901.8108936457302
 20
-5578.5174395349704
 30
0.0
 11
-4864.1612853352399
 21
-5380.8827192397393
 31
0.0
  0
LINE
  5
3D9
100
AcDbEntity
  8
平面図
370
               5
  6
Continuous
 62
               7
100
AcDbLine
 10
-3875.9923608290601
 20
-5572.2409458265602
 30
0.0
 11
-5356.6742856762403
 21
-5283.6344825192309
 31
0.0
  0
LINE
  5
3DA
100
AcDbEntity
  8
平面図
370
               5
  6
Continuous
 62
               7
100
AcDbLine
 10
-6965.9728848760296
 20
-5638.1207449149688
 30
0.0
 11
-5485.2909600288704
 21
-5926.7272082222999
 31
0.0
  0
LINE
  5
3DB
100
AcDbEntity
  8
平面図
370
               5
  6
Continuous
 62
               7
100
AcDbLine
 10
-5397.4574638709501
 20
-5481.2692028144602
 30
0.0
 11
-5359.8172095004202
 21
-5283.6344825192309
 31
0.0
  0
LINE
  5
3DC
100
AcDbEntity
  8
平面図
370
               5
  6
Continuous
 62
               7
100
AcDbLine
 10
-5893.1133880361303
 20
-5384.0209660939499
 30
0.0
 11
-5852.3302098414197
 21
-5189.5244926529203
 31
0.0
  0
LINE
  5
3DD
100
AcDbEntity
  8
平面図
370
               5
  6
Continuous
 62
               7
100
AcDbLine
 10
-6445.22969375712
 20
-5584.7892562734096
 30
0.0
 11
-6470.3263146508098
 21
-5735.3689816354808
 31
0.0
  0
LINE
  5
3DE
100
AcDbEntity
  8
平面図
370
               5
  6
Continuous
 62
               7
100
AcDbLine
 10
-6385.6263883771098
 20
-5289.9109762276412
 30
0.0
 11
-6347.9767800666395
 21
-5092.2762559324101
 31
0.0
  0
LINE
  5
3DF
100
AcDbEntity
  8
平面図
370
               5
  6
Continuous
 62
               7
100
AcDbLine
 10
-6965.9728848760296
 20
-5638.1207449149688
 30
0.0
 11
-6937.7426940981404
 21
-5490.679266407099
 31
0.0
  0
LINE
  5
3E0
100
AcDbEntity
  8
平面図
370
               5
  6
Continuous
 62
               7
100
AcDbLine
 10
-6843.6327042318198
 20
-4995.0280192118998
 30
0.0
 11
-6878.1393887181302
 21
-5192.6627395071291
 31
0.0
  0
LINE
  5
3E1
100
AcDbEntity
  8
平面図
370
               5
  6
Continuous
 62
               7
100
AcDbLine
 10
-6843.6327042318198
 20
-4995.0280192118998
 30
0.0
 11
-5359.8172095004202
 21
-5283.6344825192309
 31
0.0
  0
LINE
  5
3E2
100
AcDbEntity
  8
平面図
370
               5
  6
Continuous
 62
               7
100
AcDbLine
 10
-4001.4754652974498
 20
-5258.5378616255502
 30
0.0
 11
-5485.2909600288704
 21
-4969.9313983182201
 31
0.0
  0
LINE
  5
3E3
100
AcDbEntity
  8
平面図
370
               5
  6
Continuous
 62
               7
100
AcDbLine
 10
-4001.4754652974498
 20
-5258.5378616255502
 30
0.0
 11
-3970.1117046353402
 21
-5107.9628132334501
 31
0.0
  0
LINE
  5
3E4
100
AcDbEntity
  8
平面図
370
               5
  6
Continuous
 62
               7
100
AcDbLine
 10
-3875.9923608290601
 20
-4615.4498128924497
 30
0.0
 11
-3913.6419691395795
 21
-4813.0798562177097
 31
0.0
  0
LINE
  5
3E5
100
AcDbEntity
  8
平面図
370
               5
  6
Continuous
 62
               7
100
AcDbLine
 10
-4465.7582748605601
 20
-5013.8528233671404
 30
0.0
 11
-4493.9884656384702
 21
-5161.2896249050309
 31
0.0
  0
LINE
  5
3E6
100
AcDbEntity
  8
平面図
370
               5
  6
Continuous
 62
               7
100
AcDbLine
 10
-4409.2885393648003
 20
-4715.8316194971903
 30
0.0
 11
-4371.6482849942404
 21
-4518.2015761719504
 31
0.0
  0
LINE
  5
3E7
100
AcDbEntity
  8
平面図
370
               5
  6
Continuous
 62
               7
100
AcDbLine
 10
-4961.4141990257403
 20
-4916.6045866466302
 30
0.0
 11
-4989.6443898036296
 21
-5067.1796350387294
 31
0.0
  0
LINE
  5
3E8
100
AcDbEntity
  8
平面図
370
               5
  6
Continuous
 62
               7
100
AcDbLine
 10
-4901.8108936457302
 20
-4621.7216296308798
 30
0.0
 11
-4864.1612853352399
 21
-4424.0869093356596
 31
0.0
  0
LINE
  5
3E9
100
AcDbEntity
  8
平面図
370
               5
  6
Continuous
 62
               7
100
AcDbLine
 10
-3875.9923608290601
 20
-4615.4498128924497
 30
0.0
 11
-5356.6742856762403
 21
-4326.8386726151402
 31
0.0
  0
LINE
  5
3EA
100
AcDbEntity
  8
平面図
370
               5
  6
Continuous
 62
               7
100
AcDbLine
 10
-6470.3263146508098
 20
-4778.5731717313902
 30
0.0
 11
-5485.2909600288704
 21
-4969.9313983182201
 31
0.0
  0
LINE
  5
3EB
100
AcDbEntity
  8
平面図
370
               5
  6
Continuous
 62
               7
100
AcDbLine
 10
-5397.4574638709501
 20
-4524.4733929103704
 30
0.0
 11
-5359.8172095004202
 21
-4326.8386726151402
 31
0.0
  0
LINE
  5
3EC
100
AcDbEntity
  8
平面図
370
               5
  6
Continuous
 62
               7
100
AcDbLine
 10
-5457.0607692509602
 20
-4822.4899198103403
 30
0.0
 11
-5485.2909600288704
 21
-4969.9313983182201
 31
0.0
  0
LINE
  5
3ED
100
AcDbEntity
  8
平面図
370
               5
  6
Continuous
 62
               7
100
AcDbLine
 10
-5949.5737695919397
 20
-4725.2416830898401
 30
0.0
 11
-5977.8133143098103
 21
-4872.6831615976998
 31
0.0
  0
LINE
  5
3EE
100
AcDbEntity
  8
平面図
370
               5
  6
Continuous
 62
               7
100
AcDbLine
 10
-5893.1133880361303
 20
-4427.2251561898602
 30
0.0
 11
-5852.3302098414197
 21
-4232.7286827488397
 31
0.0
  0
LINE
  5
3EF
100
AcDbEntity
  8
平面図
370
               5
  6
Continuous
 62
               7
100
AcDbLine
 10
-6470.3263146508098
 20
-4778.5731717313902
 30
0.0
 11
-6445.22969375712
 21
-4627.9934463693198
 31
0.0
  0
LINE
  5
3F0
100
AcDbEntity
  8
平面図
370
               5
  6
Continuous
 62
               7
100
AcDbLine
 10
-6347.9767800666395
 20
-4135.4804460283203
 30
0.0
 11
-6385.6263883771098
 21
-4333.1151663235496
 31
0.0
  0
LINE
  5
3F1
100
AcDbEntity
  8
平面図
370
               5
  6
Continuous
 62
               7
100
AcDbLine
 10
-6347.9767800666395
 20
-4135.4804460283203
 30
0.0
 11
-5359.8172095004202
 21
-4326.8386726151402
 31
0.0
  0
LINE
  5
3F2
100
AcDbEntity
  8
平面図
370
               5
  6
Continuous
 62
               7
100
AcDbLine
 10
-4001.4754652974498
 20
-4301.7420517214696
 30
0.0
 11
-5485.2909600288704
 21
-4013.1355884141294
 31
0.0
  0
LINE
  5
3F3
100
AcDbEntity
  8
平面図
370
               5
  6
Continuous
 62
               7
100
AcDbLine
 10
-4001.4754652974498
 20
-4301.7420517214696
 30
0.0
 11
-3970.1117046353402
 21
-4151.1670033293703
 31
0.0
  0
LINE
  5
3F4
100
AcDbEntity
  8
平面図
370
               5
  6
Continuous
 62
               7
100
AcDbLine
 10
-3875.9923608290601
 20
-3658.6540029883699
 30
0.0
 11
-3913.6419691395795
 21
-3856.2840463136299
 31
0.0
  0
LINE
  5
3F5
100
AcDbEntity
  8
平面図
370
               5
  6
Continuous
 62
               7
100
AcDbLine
 10
-4465.7582748605601
 20
-4057.0570134630598
 30
0.0
 11
-4493.9884656384702
 21
-4204.4984919709204
 31
0.0
  0
LINE
  5
3F6
100
AcDbEntity
  8
平面図
370
               5
  6
Continuous
 62
               7
100
AcDbLine
 10
-4409.2885393648003
 20
-3759.0358095931106
 30
0.0
 11
-4371.6482849942404
 21
-3561.4057662678506
 31
0.0
  0
LINE
  5
3F7
100
AcDbEntity
  8
平面図
370
               5
  6
Continuous
 62
               7
100
AcDbLine
 10
-4961.4141990257403
 20
-3959.8087767425395
 30
0.0
 11
-4989.6443898036296
 21
-4110.3838251346497
 31
0.0
  0
LINE
  5
3F8
100
AcDbEntity
  8
平面図
370
               5
  6
Continuous
 62
               7
100
AcDbLine
 10
-4901.8108936457302
 20
-3664.9258197268
 30
0.0
 11
-4864.1612853352399
 21
-3467.2910994315698
 31
0.0
  0
LINE
  5
3F9
100
AcDbEntity
  8
平面図
370
               5
  6
Continuous
 62
               7
100
AcDbLine
 10
-3875.9923608290601
 20
-3658.6540029883699
 30
0.0
 11
-5356.6742856762403
 21
-3370.0428627110605
 31
0.0
  0
LINE
  5
3FA
100
AcDbEntity
  8
平面図
370
               5
  6
Continuous
 62
               7
100
AcDbLine
 10
-5977.8133143098103
 20
-3915.8873516936101
 30
0.0
 11
-5485.2909600288704
 21
-4013.1355884141294
 31
0.0
  0
LINE
  5
3FB
100
AcDbEntity
  8
平面図
370
               5
  6
Continuous
 62
               7
100
AcDbLine
 10
-5397.4574638709501
 20
-3567.6775830062898
 30
0.0
 11
-5359.8172095004202
 21
-3370.0428627110605
 31
0.0
  0
LINE
  5
3FC
100
AcDbEntity
  8
平面図
370
               5
  6
Continuous
 62
               7
100
AcDbLine
 10
-5457.0607692509602
 20
-3865.6987868762299
 30
0.0
 11
-5485.2909600288704
 21
-4013.1355884141294
 31
0.0
  0
LINE
  5
3FD
100
AcDbEntity
  8
平面図
370
               5
  6
Continuous
 62
               7
100
AcDbLine
 10
-5852.3302098414197
 20
-3275.9328728447499
 30
0.0
 11
-5359.8172095004202
 21
-3370.0428627110605
 31
0.0
  0
LINE
  5
3FE
100
AcDbEntity
  8
平面図
370
               5
  6
Continuous
 62
               7
100
AcDbLine
 10
-5485.2909600288704
 20
-3056.3397785100397
 30
0.0
 11
-4001.4754652974498
 21
-3344.95091878736
 31
0.0
  0
LINE
  5
3FF
100
AcDbEntity
  8
平面図
370
               5
  6
Continuous
 62
               7
100
AcDbLine
 10
-4001.4754652974498
 20
-3344.95091878736
 30
0.0
 11
-3970.1117046353402
 21
-3194.3711934252797
 31
0.0
  0
LINE
  5
400
100
AcDbEntity
  8
平面図
370
               5
  6
Continuous
 62
               7
100
AcDbLine
 10
-3875.9923608290601
 20
-2701.8581930842902
 30
0.0
 11
-3913.6419691395795
 21
-2899.4882364095301
 31
0.0
  0
LINE
  5
401
100
AcDbEntity
  8
平面図
370
               5
  6
Continuous
 62
               7
100
AcDbLine
 10
-4465.7582748605601
 20
-3100.26120355897
 30
0.0
 11
-4493.9884656384702
 21
-3247.7026820668407
 31
0.0
  0
LINE
  5
402
100
AcDbEntity
  8
平面図
370
               5
  6
Continuous
 62
               7
100
AcDbLine
 10
-4409.2885393648003
 20
-2802.2399996890299
 30
0.0
 11
-4371.6482849942404
 21
-2604.6099563637699
 31
0.0
  0
LINE
  5
403
100
AcDbEntity
  8
平面図
370
               5
  6
Continuous
 62
               7
100
AcDbLine
 10
-4961.4141990257403
 20
-3003.0129668384498
 30
0.0
 11
-4989.6443898036296
 21
-3153.5880152305599
 31
0.0
  0
LINE
  5
404
100
AcDbEntity
  8
平面図
370
               5
  6
Continuous
 62
               7
100
AcDbLine
 10
-4901.8108936457302
 20
-2708.1300098227193
 30
0.0
 11
-4864.1612853352399
 21
-2510.4999664974594
 31
0.0
  0
LINE
  5
405
100
AcDbEntity
  8
平面図
370
               5
  6
Continuous
 62
               7
100
AcDbLine
 10
-5359.8172095004202
 20
-2413.25172977695
 30
0.0
 11
-3875.9923608290601
 21
-2701.8581930842902
 31
0.0
  0
LINE
  5
406
100
AcDbEntity
  8
平面図
370
               5
  6
Continuous
 62
               7
100
AcDbLine
 10
-5359.8172095004202
 20
-2413.25172977695
 30
0.0
 11
-5397.4574638709501
 21
-2610.8817731022
 31
0.0
  0
LINE
  5
407
100
AcDbEntity
  8
平面図
370
               5
  6
Continuous
 62
               7
100
AcDbLine
 10
-5485.2909600288704
 20
-3056.3397785100397
 30
0.0
 11
-5457.0607692509602
 21
-2908.9029769721401
 31
0.0
  0
LINE
  5
408
100
AcDbEntity
  8
平面図
370
               5
  6
Continuous
 62
               7
100
AcDbLine
 10
-5977.8133143098103
 20
-3915.8873516936101
 30
0.0
 11
-5949.5737695919397
 21
-3768.4505501557205
 31
0.0
  0
LINE
  5
409
100
AcDbEntity
  8
平面図
370
               5
  6
Continuous
 62
               7
100
AcDbLine
 10
-5852.3302098414197
 20
-3275.9328728447499
 30
0.0
 11
-5893.1133880361303
 21
-3470.4293462857704
 31
0.0
  0
LINE
  5
40A
100
AcDbEntity
  8
平面図
370
               5
  6
Continuous
 62
               7
100
AcDbLine
 10
-4001.4754652974498
 20
-6215.33367152964
 30
0.0
 11
-5485.2909600288704
 21
-5926.7272082222999
 31
0.0
  0
LINE
  5
40B
100
AcDbEntity
  8
平面図
370
               5
  6
Continuous
 62
               7
100
AcDbLine
 10
-4001.4754652974498
 20
-6215.33367152964
 30
0.0
 11
-3970.1117046353402
 21
-6064.7586231375308
 31
0.0
  0
LINE
  5
40C
100
AcDbEntity
  8
平面図
370
               5
  6
Continuous
 62
               7
100
AcDbLine
 10
-4465.7582748605601
 20
-5970.64395630126
 30
0.0
 11
-4493.9884656384702
 21
-6118.0854348091298
 31
0.0
  0
LINE
  5
40D
100
AcDbEntity
  8
平面図
370
               5
  6
Continuous
 62
               7
100
AcDbLine
 10
-4961.4141990257403
 20
-5873.4003965507209
 30
0.0
 11
-4989.6443898036296
 21
-6023.9754449428101
 31
0.0
  0
LINE
  5
40E
100
AcDbEntity
  8
平面図
370
               5
  6
Continuous
 62
               7
100
AcDbLine
 10
-5457.0607692509602
 20
-5779.2857297144301
 30
0.0
 11
-5485.2909600288704
 21
-5926.7272082222999
 31
0.0
  0
LINE
  5
40F
100
AcDbEntity
  8
平面図
370
               5
  6
Continuous
 62
               7
100
AcDbLine
 10
-5949.5737695919397
 20
-5682.0374929939089
 30
0.0
 11
-5977.8133143098103
 21
-5829.4789715018005
 31
0.0
  0
LINE
  5
410
100
AcDbEntity
  8
平面図
370
               5
  6
Continuous
 62
               7
100
AcDbLine
 10
3022.34192170902
 20
-4596.62500873721
 30
0.0
 11
1.3747666347007907
 21
-4596.62500873721
 31
0.0
  0
LINE
  5
411
100
AcDbEntity
  8
平面図
370
               5
  6
Continuous
 62
               7
100
AcDbLine
 10
3022.34192170902
 20
-3944.1222194414995
 30
0.0
 11
1.3747666347007907
 21
-3944.1222194414995
 31
0.0
  0
LINE
  5
412
100
AcDbEntity
  8
平面図
370
               5
  6
Continuous
 62
               7
100
AcDbLine
 10
3022.34192170902
 20
-4144.8905096209601
 30
0.0
 11
3022.34192170902
 21
-3944.1222194414995
 31
0.0
  0
LINE
  5
413
100
AcDbEntity
  8
平面図
370
               5
  6
Continuous
 62
               7
100
AcDbLine
 10
3022.34192170902
 20
-4446.0499603450999
 30
0.0
 11
3022.34192170902
 21
-4596.62500873721
 31
0.0
  0
LINE
  5
414
100
AcDbEntity
  8
平面図
370
               5
  6
Continuous
 62
               7
100
AcDbLine
 10
2517.2759339511899
 20
-4446.0499603450999
 30
0.0
 11
2517.2759339511899
 21
-4596.62500873721
 31
0.0
  0
LINE
  5
415
100
AcDbEntity
  8
平面図
370
               5
  6
Continuous
 62
               7
100
AcDbLine
 10
2517.2759339511899
 20
-4144.8905096209601
 30
0.0
 11
2517.2759339511899
 21
-3944.1222194414995
 31
0.0
  0
LINE
  5
416
100
AcDbEntity
  8
平面図
370
               5
  6
Continuous
 62
               7
100
AcDbLine
 10
2015.35287001757
 20
-4446.0499603450999
 30
0.0
 11
2015.35287001757
 21
-4596.62500873721
 31
0.0
  0
LINE
  5
417
100
AcDbEntity
  8
平面図
370
               5
  6
Continuous
 62
               7
100
AcDbLine
 10
2015.35287001757
 20
-4144.8905096209601
 30
0.0
 11
2015.35287001757
 21
-3944.1222194414995
 31
0.0
  0
LINE
  5
418
100
AcDbEntity
  8
平面図
370
               5
  6
Continuous
 62
               7
100
AcDbLine
 10
1510.28688225975
 20
-4446.0499603450999
 30
0.0
 11
1510.28688225975
 21
-4596.62500873721
 31
0.0
  0
LINE
  5
419
100
AcDbEntity
  8
平面図
370
               5
  6
Continuous
 62
               7
100
AcDbLine
 10
1510.28688225975
 20
-4144.8905096209601
 30
0.0
 11
1510.28688225975
 21
-3944.1222194414995
 31
0.0
  0
LINE
  5
41A
100
AcDbEntity
  8
平面図
370
               5
  6
Continuous
 62
               7
100
AcDbLine
 10
1008.36381832615
 20
-4446.0499603450999
 30
0.0
 11
1008.36381832615
 21
-4596.62500873721
 31
0.0
  0
LINE
  5
41B
100
AcDbEntity
  8
平面図
370
               5
  6
Continuous
 62
               7
100
AcDbLine
 10
1008.36381832615
 20
-4144.8905096209601
 30
0.0
 11
1008.36381832615
 21
-3944.1222194414995
 31
0.0
  0
LINE
  5
41C
100
AcDbEntity
  8
平面図
370
               5
  6
Continuous
 62
               7
100
AcDbLine
 10
503.29783056832099
 20
-4446.0499603450999
 30
0.0
 11
503.29783056832099
 21
-4596.62500873721
 31
0.0
  0
LINE
  5
41D
100
AcDbEntity
  8
平面図
370
               5
  6
Continuous
 62
               7
100
AcDbLine
 10
503.29783056832099
 20
-4144.8905096209601
 30
0.0
 11
503.29783056832099
 21
-3944.1222194414995
 31
0.0
  0
LINE
  5
41E
100
AcDbEntity
  8
平面図
370
               5
  6
Continuous
 62
               7
100
AcDbLine
 10
2768.2421428880002
 20
-3188.0993766868405
 30
0.0
 11
2768.2421428880002
 21
-2987.3264095374207
 31
0.0
  0
LINE
  5
41F
100
AcDbEntity
  8
平面図
370
               5
  6
Continuous
 62
               7
100
AcDbLine
 10
2768.2421428880002
 20
-3489.2541504410301
 30
0.0
 11
2768.2421428880002
 21
-3639.8291988331193
 31
0.0
  0
LINE
  5
420
100
AcDbEntity
  8
平面図
370
               5
  6
Continuous
 62
               7
100
AcDbLine
 10
2266.3190789543701
 20
-3489.2541504410301
 30
0.0
 11
2266.3190789543701
 21
-3639.8291988331193
 31
0.0
  0
LINE
  5
421
100
AcDbEntity
  8
平面図
370
               5
  6
Continuous
 62
               7
100
AcDbLine
 10
2266.3190789543701
 20
-3188.0993766868405
 30
0.0
 11
2266.3190789543701
 21
-2987.3264095374207
 31
0.0
  0
LINE
  5
422
100
AcDbEntity
  8
平面図
370
               5
  6
Continuous
 62
               7
100
AcDbLine
 10
1761.25309119655
 20
-3489.2541504410301
 30
0.0
 11
1761.25309119655
 21
-3639.8291988331193
 31
0.0
  0
LINE
  5
423
100
AcDbEntity
  8
平面図
370
               5
  6
Continuous
 62
               7
100
AcDbLine
 10
1761.25309119655
 20
-3188.0993766868405
 30
0.0
 11
1761.25309119655
 21
-2987.3264095374207
 31
0.0
  0
LINE
  5
424
100
AcDbEntity
  8
平面図
370
               5
  6
Continuous
 62
               7
100
AcDbLine
 10
1259.3300272629201
 20
-3489.2541504410301
 30
0.0
 11
1259.3300272629201
 21
-3639.8291988331193
 31
0.0
  0
LINE
  5
425
100
AcDbEntity
  8
平面図
370
               5
  6
Continuous
 62
               7
100
AcDbLine
 10
1259.3300272629201
 20
-3188.0993766868405
 30
0.0
 11
1259.3300272629201
 21
-2987.3264095374207
 31
0.0
  0
LINE
  5
426
100
AcDbEntity
  8
平面図
370
               5
  6
Continuous
 62
               7
100
AcDbLine
 10
754.26403950509803
 20
-3489.2541504410301
 30
0.0
 11
754.26403950509803
 21
-3639.8291988331193
 31
0.0
  0
LINE
  5
427
100
AcDbEntity
  8
平面図
370
               5
  6
Continuous
 62
               7
100
AcDbLine
 10
754.26403950509803
 20
-3188.0993766868405
 30
0.0
 11
754.26403950509803
 21
-2987.3264095374207
 31
0.0
  0
LINE
  5
428
100
AcDbEntity
  8
平面図
370
               5
  6
Continuous
 62
               7
100
AcDbLine
 10
252.34097557147101
 20
-3489.2541504410301
 30
0.0
 11
252.34097557147101
 21
-3639.8291988331193
 31
0.0
  0
LINE
  5
429
100
AcDbEntity
  8
平面図
370
               5
  6
Continuous
 62
               7
100
AcDbLine
 10
252.34097557147101
 20
-3188.0993766868405
 30
0.0
 11
252.34097557147101
 21
-2987.3264095374207
 31
0.0
  0
LINE
  5
42A
100
AcDbEntity
  8
平面図
370
               5
  6
Continuous
 62
               7
100
AcDbLine
 10
2768.2421428880002
 20
-5101.6863195250507
 30
0.0
 11
2768.2421428880002
 21
-4900.9180293455902
 31
0.0
  0
LINE
  5
42B
100
AcDbEntity
  8
平面図
370
               5
  6
Continuous
 62
               7
100
AcDbLine
 10
2768.2421428880002
 20
-5402.8410932792203
 30
0.0
 11
2768.2421428880002
 21
-5553.4208186413007
 31
0.0
  0
LINE
  5
42C
100
AcDbEntity
  8
平面図
370
               5
  6
Continuous
 62
               7
100
AcDbLine
 10
2266.3190789543701
 20
-5402.8410932792203
 30
0.0
 11
2266.3190789543701
 21
-5553.4208186413007
 31
0.0
  0
LINE
  5
42D
100
AcDbEntity
  8
平面図
370
               5
  6
Continuous
 62
               7
100
AcDbLine
 10
2266.3190789543701
 20
-5101.6863195250507
 30
0.0
 11
2266.3190789543701
 21
-4900.9180293455902
 31
0.0
  0
LINE
  5
42E
100
AcDbEntity
  8
平面図
370
               5
  6
Continuous
 62
               7
100
AcDbLine
 10
1761.25309119655
 20
-5402.8410932792203
 30
0.0
 11
1761.25309119655
 21
-5553.4208186413007
 31
0.0
  0
LINE
  5
42F
100
AcDbEntity
  8
平面図
370
               5
  6
Continuous
 62
               7
100
AcDbLine
 10
1761.25309119655
 20
-5101.6863195250507
 30
0.0
 11
1761.25309119655
 21
-4900.9180293455902
 31
0.0
  0
LINE
  5
430
100
AcDbEntity
  8
平面図
370
               5
  6
Continuous
 62
               7
100
AcDbLine
 10
1259.3300272629201
 20
-5402.8410932792203
 30
0.0
 11
1259.3300272629201
 21
-5553.4208186413007
 31
0.0
  0
LINE
  5
431
100
AcDbEntity
  8
平面図
370
               5
  6
Continuous
 62
               7
100
AcDbLine
 10
1259.3300272629201
 20
-5101.6863195250507
 30
0.0
 11
1259.3300272629201
 21
-4900.9180293455902
 31
0.0
  0
LINE
  5
432
100
AcDbEntity
  8
平面図
370
               5
  6
Continuous
 62
               7
100
AcDbLine
 10
754.26403950509803
 20
-5402.8410932792203
 30
0.0
 11
754.26403950509803
 21
-5553.4208186413007
 31
0.0
  0
LINE
  5
433
100
AcDbEntity
  8
平面図
370
               5
  6
Continuous
 62
               7
100
AcDbLine
 10
754.26403950509803
 20
-5101.6863195250507
 30
0.0
 11
754.26403950509803
 21
-4900.9180293455902
 31
0.0
  0
LINE
  5
434
100
AcDbEntity
  8
平面図
370
               5
  6
Continuous
 62
               7
100
AcDbLine
 10
252.34097557147101
 20
-5402.8410932792203
 30
0.0
 11
252.34097557147101
 21
-5553.4208186413007
 31
0.0
  0
LINE
  5
435
100
AcDbEntity
  8
平面図
370
               5
  6
Continuous
 62
               7
100
AcDbLine
 10
252.34097557147101
 20
-5101.6863195250507
 30
0.0
 11
252.34097557147101
 21
-4900.9180293455902
 31
0.0
  0
LINE
  5
436
100
AcDbEntity
  8
平面図
370
               5
  6
Continuous
 62
               7
100
AcDbLine
 10
2768.2421428880002
 20
-3639.8291988331193
 30
0.0
 11
1.3747666347007907
 21
-3639.8291988331193
 31
0.0
  0
LINE
  5
437
100
AcDbEntity
  8
平面図
370
               5
  6
Continuous
 62
               7
100
AcDbLine
 10
2768.2421428880002
 20
-2987.3264095374207
 30
0.0
 11
1.3747666347007907
 21
-2987.3264095374207
 31
0.0
  0
LINE
  5
438
100
AcDbEntity
  8
平面図
370
               5
  6
Continuous
 62
               7
100
AcDbLine
 10
2768.2421428880002
 20
-5553.4208186413007
 30
0.0
 11
1.3747666347007907
 21
-5553.4208186413007
 31
0.0
  0
LINE
  5
439
100
AcDbEntity
  8
平面図
370
               5
  6
Continuous
 62
               7
100
AcDbLine
 10
2768.2421428880002
 20
-4900.9180293455902
 30
0.0
 11
1.3747666347007907
 21
-4900.9180293455902
 31
0.0
  0
LINE
  5
43A
100
AcDbEntity
  8
平面図
370
               5
  6
Continuous
 62
               7
100
AcDbLine
 10
3022.34192170902
 20
-2683.0333889290296
 30
0.0
 11
1.3747666347007907
 21
-2683.0333889290296
 31
0.0
  0
LINE
  5
43B
100
AcDbEntity
  8
平面図
370
               5
  6
Continuous
 62
               7
100
AcDbLine
 10
3022.34192170902
 20
-2030.53059963333
 30
0.0
 11
1.3747666347007907
 21
-2030.53059963333
 31
0.0
  0
LINE
  5
43C
100
AcDbEntity
  8
平面図
370
               5
  6
Continuous
 62
               7
100
AcDbLine
 10
3022.34192170902
 20
-2532.4583405369403
 30
0.0
 11
3022.34192170902
 21
-2683.0333889290296
 31
0.0
  0
LINE
  5
43D
100
AcDbEntity
  8
平面図
370
               5
  6
Continuous
 62
               7
100
AcDbLine
 10
2517.2759339511899
 20
-2532.4583405369403
 30
0.0
 11
2517.2759339511899
 21
-2683.0333889290296
 31
0.0
  0
LINE
  5
43E
100
AcDbEntity
  8
平面図
370
               5
  6
Continuous
 62
               7
100
AcDbLine
 10
2517.2759339511899
 20
-2231.3035667827598
 30
0.0
 11
2517.2759339511899
 21
-2030.53059963333
 31
0.0
  0
LINE
  5
43F
100
AcDbEntity
  8
平面図
370
               5
  6
Continuous
 62
               7
100
AcDbLine
 10
2015.35287001757
 20
-2532.4583405369403
 30
0.0
 11
2015.35287001757
 21
-2683.0333889290296
 31
0.0
  0
LINE
  5
440
100
AcDbEntity
  8
平面図
370
               5
  6
Continuous
 62
               7
100
AcDbLine
 10
2015.35287001757
 20
-2231.3035667827598
 30
0.0
 11
2015.35287001757
 21
-2030.53059963333
 31
0.0
  0
LINE
  5
441
100
AcDbEntity
  8
平面図
370
               5
  6
Continuous
 62
               7
100
AcDbLine
 10
1510.28688225975
 20
-2532.4583405369403
 30
0.0
 11
1510.28688225975
 21
-2683.0333889290296
 31
0.0
  0
LINE
  5
442
100
AcDbEntity
  8
平面図
370
               5
  6
Continuous
 62
               7
100
AcDbLine
 10
1510.28688225975
 20
-2231.3035667827598
 30
0.0
 11
1510.28688225975
 21
-2030.53059963333
 31
0.0
  0
LINE
  5
443
100
AcDbEntity
  8
平面図
370
               5
  6
Continuous
 62
               7
100
AcDbLine
 10
1008.36381832615
 20
-2532.4583405369403
 30
0.0
 11
1008.36381832615
 21
-2683.0333889290296
 31
0.0
  0
LINE
  5
444
100
AcDbEntity
  8
平面図
370
               5
  6
Continuous
 62
               7
100
AcDbLine
 10
1008.36381832615
 20
-2231.3035667827598
 30
0.0
 11
1008.36381832615
 21
-2030.53059963333
 31
0.0
  0
LINE
  5
445
100
AcDbEntity
  8
平面図
370
               5
  6
Continuous
 62
               7
100
AcDbLine
 10
503.29783056832099
 20
-2532.4583405369403
 30
0.0
 11
503.29783056832099
 21
-2683.0333889290296
 31
0.0
  0
LINE
  5
446
100
AcDbEntity
  8
平面図
370
               5
  6
Continuous
 62
               7
100
AcDbLine
 10
503.29783056832099
 20
-2231.3035667827598
 30
0.0
 11
503.29783056832099
 21
-2030.53059963333
 31
0.0
  0
LINE
  5
447
100
AcDbEntity
  8
平面図
370
               5
  6
Continuous
 62
               7
100
AcDbLine
 10
3022.34192170902
 20
-2231.3035667827598
 30
0.0
 11
3022.34192170902
 21
-2030.53059963333
 31
0.0
  0
LINE
  5
448
100
AcDbEntity
  8
平面図
370
               5
  6
Continuous
 62
               7
100
AcDbLine
 10
3878.7512480383798
 20
-5572.2409458265602
 30
0.0
 11
3916.3915024089401
 21
-5769.8756661218004
 31
0.0
  0
LINE
  5
449
100
AcDbEntity
  8
平面図
370
               5
  6
Continuous
 62
               7
100
AcDbLine
 10
4412.0474265741004
 20
-5672.6274294012792
 30
0.0
 11
4374.3978182636101
 21
-5474.9927091060499
 31
0.0
  0
LINE
  5
44A
100
AcDbEntity
  8
平面図
370
               5
  6
Continuous
 62
               7
100
AcDbLine
 10
4904.5604269150999
 20
-5578.5174395349704
 30
0.0
 11
4866.9201725446001
 21
-5380.8827192397393
 31
0.0
  0
LINE
  5
44B
100
AcDbEntity
  8
平面図
370
               5
  6
Continuous
 62
               7
100
AcDbLine
 10
3878.7512480383798
 20
-5572.2409458265602
 30
0.0
 11
5359.4331728855004
 21
-5283.6344825192309
 31
0.0
  0
LINE
  5
44C
100
AcDbEntity
  8
平面図
370
               5
  6
Continuous
 62
               7
100
AcDbLine
 10
6968.7317720853998
 20
-5638.1207449149688
 30
0.0
 11
5488.0498472381996
 21
-5926.7272082222999
 31
0.0
  0
LINE
  5
44D
100
AcDbEntity
  8
平面図
370
               5
  6
Continuous
 62
               7
100
AcDbLine
 10
5400.2163510803002
 20
-5481.2692028144602
 30
0.0
 11
5362.5667427697999
 21
-5283.6344825192309
 31
0.0
  0
LINE
  5
44E
100
AcDbEntity
  8
平面図
370
               5
  6
Continuous
 62
               7
100
AcDbLine
 10
5895.8629213055001
 20
-5384.0209660939499
 30
0.0
 11
5855.0797431108003
 21
-5189.5244926529203
 31
0.0
  0
LINE
  5
44F
100
AcDbEntity
  8
平面図
370
               5
  6
Continuous
 62
               7
100
AcDbLine
 10
6447.9792270264998
 20
-5584.7892562734096
 30
0.0
 11
6473.0758479202004
 21
-5735.3689816354808
 31
0.0
  0
LINE
  5
450
100
AcDbEntity
  8
平面図
370
               5
  6
Continuous
 62
               7
100
AcDbLine
 10
6388.3759216464996
 20
-5289.9109762276412
 30
0.0
 11
6350.7356672758997
 21
-5092.2762559324101
 31
0.0
  0
LINE
  5
451
100
AcDbEntity
  8
平面図
370
               5
  6
Continuous
 62
               7
100
AcDbLine
 10
6968.7317720853998
 20
-5638.1207449149688
 30
0.0
 11
6940.4922273675002
 21
-5490.679266407099
 31
0.0
  0
LINE
  5
452
100
AcDbEntity
  8
平面図
370
               5
  6
Continuous
 62
               7
100
AcDbLine
 10
6846.3822375011996
 20
-4995.0280192118998
 30
0.0
 11
6880.8889219875
 21
-5192.6627395071291
 31
0.0
  0
LINE
  5
453
100
AcDbEntity
  8
平面図
370
               5
  6
Continuous
 62
               7
100
AcDbLine
 10
6846.3822375011996
 20
-4995.0280192118998
 30
0.0
 11
5362.5667427697999
 21
-5283.6344825192309
 31
0.0
  0
LINE
  5
454
100
AcDbEntity
  8
平面図
370
               5
  6
Continuous
 62
               7
100
AcDbLine
 10
4004.2343525067799
 20
-5258.5378616255502
 30
0.0
 11
5488.0498472381996
 21
-4969.9313983182201
 31
0.0
  0
LINE
  5
455
100
AcDbEntity
  8
平面図
370
               5
  6
Continuous
 62
               7
100
AcDbLine
 10
4004.2343525067799
 20
-5258.5378616255502
 30
0.0
 11
3972.8612379046999
 21
-5107.9628132334501
 31
0.0
  0
LINE
  5
456
100
AcDbEntity
  8
平面図
370
               5
  6
Continuous
 62
               7
100
AcDbLine
 10
3878.7512480383798
 20
-4615.4498128924497
 30
0.0
 11
3916.3915024089401
 21
-4813.0798562177097
 31
0.0
  0
LINE
  5
457
100
AcDbEntity
  8
平面図
370
               5
  6
Continuous
 62
               7
100
AcDbLine
 10
4468.5171620698602
 20
-5013.8528233671404
 30
0.0
 11
4496.7473528477703
 21
-5161.2896249050309
 31
0.0
  0
LINE
  5
458
100
AcDbEntity
  8
平面図
370
               5
  6
Continuous
 62
               7
100
AcDbLine
 10
4412.0474265741004
 20
-4715.8316194971903
 30
0.0
 11
4374.3978182636101
 21
-4518.2015761719504
 31
0.0
  0
LINE
  5
459
100
AcDbEntity
  8
平面図
370
               5
  6
Continuous
 62
               7
100
AcDbLine
 10
4964.1637322951001
 20
-4916.6045866466302
 30
0.0
 11
4992.3939230730002
 21
-5067.1796350387294
 31
0.0
  0
LINE
  5
45A
100
AcDbEntity
  8
平面図
370
               5
  6
Continuous
 62
               7
100
AcDbLine
 10
4904.5604269150999
 20
-4621.7216296308798
 30
0.0
 11
4866.9201725446001
 21
-4424.0869093356596
 31
0.0
  0
LINE
  5
45B
100
AcDbEntity
  8
平面図
370
               5
  6
Continuous
 62
               7
100
AcDbLine
 10
3878.7512480383798
 20
-4615.4498128924497
 30
0.0
 11
5359.4331728855004
 21
-4326.8386726151402
 31
0.0
  0
LINE
  5
45C
100
AcDbEntity
  8
平面図
370
               5
  6
Continuous
 62
               7
100
AcDbLine
 10
6473.0758479202004
 20
-4778.5731717313902
 30
0.0
 11
5488.0498472381996
 21
-4969.9313983182201
 31
0.0
  0
LINE
  5
45D
100
AcDbEntity
  8
平面図
370
               5
  6
Continuous
 62
               7
100
AcDbLine
 10
5400.2163510803002
 20
-4524.4733929103704
 30
0.0
 11
5362.5667427697999
 21
-4326.8386726151402
 31
0.0
  0
LINE
  5
45E
100
AcDbEntity
  8
平面図
370
               5
  6
Continuous
 62
               7
100
AcDbLine
 10
5459.8196564603004
 20
-4822.4899198103403
 30
0.0
 11
5488.0498472381996
 21
-4969.9313983182201
 31
0.0
  0
LINE
  5
45F
100
AcDbEntity
  8
平面図
370
               5
  6
Continuous
 62
               7
100
AcDbLine
 10
5952.3326568012999
 20
-4725.2416830898401
 30
0.0
 11
5980.5628475792
 21
-4872.6831615976998
 31
0.0
  0
LINE
  5
460
100
AcDbEntity
  8
平面図
370
               5
  6
Continuous
 62
               7
100
AcDbLine
 10
5895.8629213055001
 20
-4427.2251561898602
 30
0.0
 11
5855.0797431108003
 21
-4232.7286827488397
 31
0.0
  0
LINE
  5
461
100
AcDbEntity
  8
平面図
370
               5
  6
Continuous
 62
               7
100
AcDbLine
 10
6473.0758479202004
 20
-4778.5731717313902
 30
0.0
 11
6447.9792270264998
 21
-4627.9934463693198
 31
0.0
  0
LINE
  5
462
100
AcDbEntity
  8
平面図
370
               5
  6
Continuous
 62
               7
100
AcDbLine
 10
6350.7356672758997
 20
-4135.4804460283203
 30
0.0
 11
6388.3759216464996
 21
-4333.1151663235496
 31
0.0
  0
LINE
  5
463
100
AcDbEntity
  8
平面図
370
               5
  6
Continuous
 62
               7
100
AcDbLine
 10
6350.7356672758997
 20
-4135.4804460283203
 30
0.0
 11
5362.5667427697999
 21
-4326.8386726151402
 31
0.0
  0
LINE
  5
464
100
AcDbEntity
  8
平面図
370
               5
  6
Continuous
 62
               7
100
AcDbLine
 10
4004.2343525067799
 20
-4301.7420517214696
 30
0.0
 11
5488.0498472381996
 21
-4013.1355884141294
 31
0.0
  0
LINE
  5
465
100
AcDbEntity
  8
平面図
370
               5
  6
Continuous
 62
               7
100
AcDbLine
 10
4004.2343525067799
 20
-4301.7420517214696
 30
0.0
 11
3972.8612379046999
 21
-4151.1670033293703
 31
0.0
  0
LINE
  5
466
100
AcDbEntity
  8
平面図
370
               5
  6
Continuous
 62
               7
100
AcDbLine
 10
3878.7512480383798
 20
-3658.6540029883699
 30
0.0
 11
3916.3915024089401
 21
-3856.2840463136299
 31
0.0
  0
LINE
  5
467
100
AcDbEntity
  8
平面図
370
               5
  6
Continuous
 62
               7
100
AcDbLine
 10
4468.5171620698602
 20
-4057.0570134630598
 30
0.0
 11
4496.7473528477703
 21
-4204.4984919709204
 31
0.0
  0
LINE
  5
468
100
AcDbEntity
  8
平面図
370
               5
  6
Continuous
 62
               7
100
AcDbLine
 10
4412.0474265741004
 20
-3759.0358095931106
 30
0.0
 11
4374.3978182636101
 21
-3561.4057662678506
 31
0.0
  0
LINE
  5
469
100
AcDbEntity
  8
平面図
370
               5
  6
Continuous
 62
               7
100
AcDbLine
 10
4964.1637322951001
 20
-3959.8087767425395
 30
0.0
 11
4992.3939230730002
 21
-4110.3838251346497
 31
0.0
  0
LINE
  5
46A
100
AcDbEntity
  8
平面図
370
               5
  6
Continuous
 62
               7
100
AcDbLine
 10
4904.5604269150999
 20
-3664.9258197268
 30
0.0
 11
4866.9201725446001
 21
-3467.2910994315698
 31
0.0
  0
LINE
  5
46B
100
AcDbEntity
  8
平面図
370
               5
  6
Continuous
 62
               7
100
AcDbLine
 10
3878.7512480383798
 20
-3658.6540029883699
 30
0.0
 11
5359.4331728855004
 21
-3370.0428627110605
 31
0.0
  0
LINE
  5
46C
100
AcDbEntity
  8
平面図
370
               5
  6
Continuous
 62
               7
100
AcDbLine
 10
5980.5628475792
 20
-3915.8873516936101
 30
0.0
 11
5488.0498472381996
 21
-4013.1355884141294
 31
0.0
  0
LINE
  5
46D
100
AcDbEntity
  8
平面図
370
               5
  6
Continuous
 62
               7
100
AcDbLine
 10
5400.2163510803002
 20
-3567.6775830062898
 30
0.0
 11
5362.5667427697999
 21
-3370.0428627110605
 31
0.0
  0
LINE
  5
46E
100
AcDbEntity
  8
平面図
370
               5
  6
Continuous
 62
               7
100
AcDbLine
 10
5459.8196564603004
 20
-3865.6987868762299
 30
0.0
 11
5488.0498472381996
 21
-4013.1355884141294
 31
0.0
  0
LINE
  5
46F
100
AcDbEntity
  8
平面図
370
               5
  6
Continuous
 62
               7
100
AcDbLine
 10
5855.0797431108003
 20
-3275.9328728447499
 30
0.0
 11
5362.5667427697999
 21
-3370.0428627110605
 31
0.0
  0
LINE
  5
470
100
AcDbEntity
  8
平面図
370
               5
  6
Continuous
 62
               7
100
AcDbLine
 10
5488.0498472381996
 20
-3056.3397785100397
 30
0.0
 11
4004.2343525067799
 21
-3344.95091878736
 31
0.0
  0
LINE
  5
471
100
AcDbEntity
  8
平面図
370
               5
  6
Continuous
 62
               7
100
AcDbLine
 10
4004.2343525067799
 20
-3344.95091878736
 30
0.0
 11
3972.8612379046999
 21
-3194.3711934252797
 31
0.0
  0
LINE
  5
472
100
AcDbEntity
  8
平面図
370
               5
  6
Continuous
 62
               7
100
AcDbLine
 10
3878.7512480383798
 20
-2701.8581930842902
 30
0.0
 11
3916.3915024089401
 21
-2899.4882364095301
 31
0.0
  0
LINE
  5
473
100
AcDbEntity
  8
平面図
370
               5
  6
Continuous
 62
               7
100
AcDbLine
 10
4468.5171620698602
 20
-3100.26120355897
 30
0.0
 11
4496.7473528477703
 21
-3247.7026820668407
 31
0.0
  0
LINE
  5
474
100
AcDbEntity
  8
平面図
370
               5
  6
Continuous
 62
               7
100
AcDbLine
 10
4412.0474265741004
 20
-2802.2399996890299
 30
0.0
 11
4374.3978182636101
 21
-2604.6099563637699
 31
0.0
  0
LINE
  5
475
100
AcDbEntity
  8
平面図
370
               5
  6
Continuous
 62
               7
100
AcDbLine
 10
4964.1637322951001
 20
-3003.0129668384498
 30
0.0
 11
4992.3939230730002
 21
-3153.5880152305599
 31
0.0
  0
LINE
  5
476
100
AcDbEntity
  8
平面図
370
               5
  6
Continuous
 62
               7
100
AcDbLine
 10
4904.5604269150999
 20
-2708.1300098227193
 30
0.0
 11
4866.9201725446001
 21
-2510.4999664974594
 31
0.0
  0
LINE
  5
477
100
AcDbEntity
  8
平面図
370
               5
  6
Continuous
 62
               7
100
AcDbLine
 10
5362.5667427697999
 20
-2413.25172977695
 30
0.0
 11
3878.7512480383798
 21
-2701.8581930842902
 31
0.0
  0
LINE
  5
478
100
AcDbEntity
  8
平面図
370
               5
  6
Continuous
 62
               7
100
AcDbLine
 10
5362.5667427697999
 20
-2413.25172977695
 30
0.0
 11
5400.2163510803002
 21
-2610.8817731022
 31
0.0
  0
LINE
  5
479
100
AcDbEntity
  8
平面図
370
               5
  6
Continuous
 62
               7
100
AcDbLine
 10
5488.0498472381996
 20
-3056.3397785100397
 30
0.0
 11
5459.8196564603004
 21
-2908.9029769721401
 31
0.0
  0
LINE
  5
47A
100
AcDbEntity
  8
平面図
370
               5
  6
Continuous
 62
               7
100
AcDbLine
 10
5980.5628475792
 20
-3915.8873516936101
 30
0.0
 11
5952.3326568012999
 21
-3768.4505501557205
 31
0.0
  0
LINE
  5
47B
100
AcDbEntity
  8
平面図
370
               5
  6
Continuous
 62
               7
100
AcDbLine
 10
5855.0797431108003
 20
-3275.9328728447499
 30
0.0
 11
5895.8629213055001
 21
-3470.4293462857704
 31
0.0
  0
LINE
  5
47C
100
AcDbEntity
  8
平面図
370
               5
  6
Continuous
 62
               7
100
AcDbLine
 10
4004.2343525067799
 20
-6215.33367152964
 30
0.0
 11
5488.0498472381996
 21
-5926.7272082222999
 31
0.0
  0
LINE
  5
47D
100
AcDbEntity
  8
平面図
370
               5
  6
Continuous
 62
               7
100
AcDbLine
 10
4004.2343525067799
 20
-6215.33367152964
 30
0.0
 11
3972.8612379046999
 21
-6064.7586231375308
 31
0.0
  0
LINE
  5
47E
100
AcDbEntity
  8
平面図
370
               5
  6
Continuous
 62
               7
100
AcDbLine
 10
4468.5171620698602
 20
-5970.64395630126
 30
0.0
 11
4496.7473528477703
 21
-6118.0854348091298
 31
0.0
  0
LINE
  5
47F
100
AcDbEntity
  8
平面図
370
               5
  6
Continuous
 62
               7
100
AcDbLine
 10
4964.1637322951001
 20
-5873.4003965507209
 30
0.0
 11
4992.3939230730002
 21
-6023.9754449428101
 31
0.0
  0
LINE
  5
480
100
AcDbEntity
  8
平面図
370
               5
  6
Continuous
 62
               7
100
AcDbLine
 10
5459.8196564603004
 20
-5779.2857297144301
 30
0.0
 11
5488.0498472381996
 21
-5926.7272082222999
 31
0.0
  0
LINE
  5
481
100
AcDbEntity
  8
平面図
370
               5
  6
Continuous
 62
               7
100
AcDbLine
 10
5952.3326568012999
 20
-5682.0374929939089
 30
0.0
 11
5980.5628475792
 21
-5829.4789715018005
 31
0.0
  0
LINE
  5
482
100
AcDbEntity
  8
平面図
370
               5
  6
Continuous
 62
               7
100
AcDbLine
 10
-3017.3839961857698
 20
-6511.6224550956713
 30
0.0
 11
3.5764548316510627
 21
-6511.6224550956713
 31
0.0
  0
LINE
  5
483
100
AcDbEntity
  8
平面図
370
               5
  6
Continuous
 62
               7
100
AcDbLine
 10
-3017.3839961857698
 20
-5859.1190934464603
 30
0.0
 11
3.5764548316510627
 21
-5859.1190934464603
 31
0.0
  0
LINE
  5
484
100
AcDbEntity
  8
平面図
370
               5
  6
Continuous
 62
               7
100
AcDbLine
 10
-3017.3839961857698
 20
-6511.6224550956713
 30
0.0
 11
-3017.3839961857698
 21
-5859.1190934464603
 31
0.0
  0
LINE
  5
485
100
AcDbEntity
  8
平面図
370
               5
  6
Continuous
 62
               7
100
AcDbLine
 10
-3017.3839961857698
 20
-6361.0425976500401
 30
0.0
 11
-3017.3839961857698
 21
-6511.6224550956713
 31
0.0
  0
LINE
  5
486
100
AcDbEntity
  8
平面図
370
               5
  6
Continuous
 62
               7
100
AcDbLine
 10
-2512.3269193491501
 20
-6361.0425976500401
 30
0.0
 11
-2512.3269193491501
 21
-6511.6224550956713
 31
0.0
  0
LINE
  5
487
100
AcDbEntity
  8
平面図
370
               5
  6
Continuous
 62
               7
100
AcDbLine
 10
-2512.3269193491501
 20
-6059.8875597329707
 30
0.0
 11
-2512.3269193491501
 21
-5859.1190934464603
 31
0.0
  0
LINE
  5
488
100
AcDbEntity
  8
平面図
370
               5
  6
Continuous
 62
               7
100
AcDbLine
 10
-2010.4034151455598
 20
-6361.0425976500401
 30
0.0
 11
-2010.4034151455598
 21
-6511.6224550956713
 31
0.0
  0
LINE
  5
489
100
AcDbEntity
  8
平面図
370
               5
  6
Continuous
 62
               7
100
AcDbLine
 10
-2010.4034151455598
 20
-6059.8875597329707
 30
0.0
 11
-2010.4034151455598
 21
-5859.1190934464603
 31
0.0
  0
LINE
  5
48A
100
AcDbEntity
  8
平面図
370
               5
  6
Continuous
 62
               7
100
AcDbLine
 10
-1505.3369843606999
 20
-6361.0425976500401
 30
0.0
 11
-1505.3369843606999
 21
-6511.6224550956713
 31
0.0
  0
LINE
  5
48B
100
AcDbEntity
  8
平面図
370
               5
  6
Continuous
 62
               7
100
AcDbLine
 10
-1505.3369843606999
 20
-6059.8875597329707
 30
0.0
 11
-1505.3369843606999
 21
-5859.1190934464603
 31
0.0
  0
LINE
  5
48C
100
AcDbEntity
  8
平面図
370
               5
  6
Continuous
 62
               7
100
AcDbLine
 10
-1003.4134801569598
 20
-6361.0425976500401
 30
0.0
 11
-1003.4134801569598
 21
-6511.6224550956713
 31
0.0
  0
LINE
  5
48D
100
AcDbEntity
  8
平面図
370
               5
  6
Continuous
 62
               7
100
AcDbLine
 10
-1003.4134801569598
 20
-6059.8875597329707
 30
0.0
 11
-1003.4134801569598
 21
-5859.1190934464603
 31
0.0
  0
LINE
  5
48E
100
AcDbEntity
  8
平面図
370
               5
  6
Continuous
 62
               7
100
AcDbLine
 10
-498.34704937213996
 20
-6361.0425976500401
 30
0.0
 11
-498.34704937213996
 21
-6511.6224550956713
 31
0.0
  0
LINE
  5
48F
100
AcDbEntity
  8
平面図
370
               5
  6
Continuous
 62
               7
100
AcDbLine
 10
-498.34704937213996
 20
-6059.8875597329707
 30
0.0
 11
-498.34704937213996
 21
-5859.1190934464603
 31
0.0
  0
LINE
  5
490
100
AcDbEntity
  8
平面図
370
               5
  6
Continuous
 62
               7
100
AcDbLine
 10
3024.5462597973101
 20
-6511.6224550956713
 30
0.0
 11
3.5764548316510627
 21
-6511.6224550956713
 31
0.0
  0
LINE
  5
491
100
AcDbEntity
  8
平面図
370
               5
  6
Continuous
 62
               7
100
AcDbLine
 10
3024.5462597973101
 20
-5859.1190934464603
 30
0.0
 11
3.5764548316510627
 21
-5859.1190934464603
 31
0.0
  0
LINE
  5
492
100
AcDbEntity
  8
平面図
370
               5
  6
Continuous
 62
               7
100
AcDbLine
 10
3024.5462597973101
 20
-6511.6224550956713
 30
0.0
 11
3024.5462597973101
 21
-5859.1190934464603
 31
0.0
  0
LINE
  5
493
100
AcDbEntity
  8
平面図
370
               5
  6
Continuous
 62
               7
100
AcDbLine
 10
3024.5462597973101
 20
-6361.0425976500401
 30
0.0
 11
3024.5462597973101
 21
-6511.6224550956713
 31
0.0
  0
LINE
  5
494
100
AcDbEntity
  8
平面図
370
               5
  6
Continuous
 62
               7
100
AcDbLine
 10
2519.47982901244
 20
-6361.0425976500401
 30
0.0
 11
2519.47982901244
 21
-6511.6224550956713
 31
0.0
  0
LINE
  5
495
100
AcDbEntity
  8
平面図
370
               5
  6
Continuous
 62
               7
100
AcDbLine
 10
2519.47982901244
 20
-6059.8875597329707
 30
0.0
 11
2519.47982901244
 21
-5859.1190934464603
 31
0.0
  0
LINE
  5
496
100
AcDbEntity
  8
平面図
370
               5
  6
Continuous
 62
               7
100
AcDbLine
 10
2017.5563248086901
 20
-6361.0425976500401
 30
0.0
 11
2017.5563248086901
 21
-6511.6224550956713
 31
0.0
  0
LINE
  5
497
100
AcDbEntity
  8
平面図
370
               5
  6
Continuous
 62
               7
100
AcDbLine
 10
2017.5563248086901
 20
-6059.8875597329707
 30
0.0
 11
2017.5563248086901
 21
-5859.1190934464603
 31
0.0
  0
LINE
  5
498
100
AcDbEntity
  8
平面図
370
               5
  6
Continuous
 62
               7
100
AcDbLine
 10
1512.48989402385
 20
-6361.0425976500401
 30
0.0
 11
1512.48989402385
 21
-6511.6224550956713
 31
0.0
  0
LINE
  5
499
100
AcDbEntity
  8
平面図
370
               5
  6
Continuous
 62
               7
100
AcDbLine
 10
1512.48989402385
 20
-6059.8875597329707
 30
0.0
 11
1512.48989402385
 21
-5859.1190934464603
 31
0.0
  0
LINE
  5
49A
100
AcDbEntity
  8
平面図
370
               5
  6
Continuous
 62
               7
100
AcDbLine
 10
1010.56638982007
 20
-6361.0425976500401
 30
0.0
 11
1010.56638982007
 21
-6511.6224550956713
 31
0.0
  0
LINE
  5
49B
100
AcDbEntity
  8
平面図
370
               5
  6
Continuous
 62
               7
100
AcDbLine
 10
1010.56638982007
 20
-6059.8875597329707
 30
0.0
 11
1010.56638982007
 21
-5859.1190934464603
 31
0.0
  0
LINE
  5
49C
100
AcDbEntity
  8
平面図
370
               5
  6
Continuous
 62
               7
100
AcDbLine
 10
505.49995903541998
 20
-6361.0425976500401
 30
0.0
 11
505.49995903541998
 21
-6511.6224550956713
 31
0.0
  0
LINE
  5
49D
100
AcDbEntity
  8
平面図
370
               5
  6
Continuous
 62
               7
100
AcDbLine
 10
505.49995903541998
 20
-6059.8875597329707
 30
0.0
 11
505.49995903541998
 21
-5859.1190934464603
 31
0.0
  0
LINE
  5
49E
100
AcDbEntity
  8
平面図
370
               5
  6
Continuous
 62
               7
100
AcDbLine
 10
0.003066674231377
 20
-6361.5648764164098
 30
0.0
 11
0.003066674231377
 21
-6512.1400568878407
 31
0.0
  0
LINE
  5
49F
100
AcDbEntity
  8
平面図
370
               5
  6
Continuous
 62
               7
100
AcDbLine
 10
0.003066674231377
 20
-6060.405161525151
 30
0.0
 11
0.003066674231377
 21
-5859.6366952384496
 31
0.0
  0
LINE
  5
4A0
100
AcDbEntity
  8
平面図
370
               5
  6
Continuous
 62
               7
100
AcDbLine
 10
-3017.3839961857698
 20
-6511.6185256649687
 30
0.0
 11
3.5738049486390082
 21
-6511.6185256649687
 31
0.0
  0
LINE
  5
4A1
100
AcDbEntity
  8
平面図
370
               5
  6
Continuous
 62
               7
100
AcDbLine
 10
-3017.3839961857698
 20
-5859.1157363692701
 30
0.0
 11
3.5738049486390082
 21
-5859.1157363692701
 31
0.0
  0
LINE
  5
4A2
100
AcDbEntity
  8
平面図
370
               5
  6
Continuous
 62
               7
100
AcDbLine
 10
-3017.3839961857698
 20
-6059.8840265487297
 30
0.0
 11
-3017.3839961857698
 21
-5859.1157363692701
 31
0.0
  0
LINE
  5
4A3
100
AcDbEntity
  8
平面図
370
               5
  6
Continuous
 62
               7
100
AcDbLine
 10
-3017.3839961857698
 20
-6361.0388003028902
 30
0.0
 11
-3017.3839961857698
 21
-6511.6185256649687
 31
0.0
  0
LINE
  5
4A4
100
AcDbEntity
  8
平面図
370
               5
  6
Continuous
 62
               7
100
AcDbLine
 10
-2512.3273623678801
 20
-6361.0388003028902
 30
0.0
 11
-2512.3273623678801
 21
-6511.6185256649687
 31
0.0
  0
LINE
  5
4A5
100
AcDbEntity
  8
平面図
370
               5
  6
Continuous
 62
               7
100
AcDbLine
 10
-2512.3273623678801
 20
-6059.8840265487297
 30
0.0
 11
-2512.3273623678801
 21
-5859.1157363692701
 31
0.0
  0
LINE
  5
4A6
100
AcDbEntity
  8
平面図
370
               5
  6
Continuous
 62
               7
100
AcDbLine
 10
-2010.40429843428
 20
-6361.0388003028902
 30
0.0
 11
-2010.40429843428
 21
-6511.6185256649687
 31
0.0
  0
LINE
  5
4A7
100
AcDbEntity
  8
平面図
370
               5
  6
Continuous
 62
               7
100
AcDbLine
 10
-2010.40429843428
 20
-6059.8840265487297
 30
0.0
 11
-2010.40429843428
 21
-5859.1157363692701
 31
0.0
  0
LINE
  5
4A8
100
AcDbEntity
  8
平面図
370
               5
  6
Continuous
 62
               7
100
AcDbLine
 10
-1505.33831067645
 20
-6361.0388003028902
 30
0.0
 11
-1505.33831067645
 21
-6511.6185256649687
 31
0.0
  0
LINE
  5
4A9
100
AcDbEntity
  8
平面図
370
               5
  6
Continuous
 62
               7
100
AcDbLine
 10
-1505.33831067645
 20
-6059.8840265487297
 30
0.0
 11
-1505.33831067645
 21
-5859.1157363692701
 31
0.0
  0
LINE
  5
4AA
100
AcDbEntity
  8
平面図
370
               5
  6
Continuous
 62
               7
100
AcDbLine
 10
-1003.41524674283
 20
-6361.0388003028902
 30
0.0
 11
-1003.41524674283
 21
-6511.6185256649687
 31
0.0
  0
LINE
  5
4AB
100
AcDbEntity
  8
平面図
370
               5
  6
Continuous
 62
               7
100
AcDbLine
 10
-1003.41524674283
 20
-6059.8840265487297
 30
0.0
 11
-1003.41524674283
 21
-5859.1157363692701
 31
0.0
  0
LINE
  5
4AC
100
AcDbEntity
  8
平面図
370
               5
  6
Continuous
 62
               7
100
AcDbLine
 10
-498.34925898501001
 20
-6361.0388003028902
 30
0.0
 11
-498.34925898501001
 21
-6511.6185256649687
 31
0.0
  0
LINE
  5
4AD
100
AcDbEntity
  8
平面図
370
               5
  6
Continuous
 62
               7
100
AcDbLine
 10
-498.34925898501001
 20
-6059.8840265487297
 30
0.0
 11
-498.34925898501001
 21
-5859.1157363692701
 31
0.0
  0
LINE
  5
4AE
100
AcDbEntity
  8
平面図
370
               5
  6
Continuous
 62
               7
100
AcDbLine
 10
3024.54096002296
 20
-6511.6185256649687
 30
0.0
 11
3.5738049486390082
 21
-6511.6185256649687
 31
0.0
  0
LINE
  5
4AF
100
AcDbEntity
  8
平面図
370
               5
  6
Continuous
 62
               7
100
AcDbLine
 10
3024.54096002296
 20
-5859.1157363692701
 30
0.0
 11
3.5738049486390082
 21
-5859.1157363692701
 31
0.0
  0
LINE
  5
4B0
100
AcDbEntity
  8
平面図
370
               5
  6
Continuous
 62
               7
100
AcDbLine
 10
3024.54096002296
 20
-6059.8840265487297
 30
0.0
 11
3024.54096002296
 21
-5859.1157363692701
 31
0.0
  0
LINE
  5
4B1
100
AcDbEntity
  8
平面図
370
               5
  6
Continuous
 62
               7
100
AcDbLine
 10
3024.54096002296
 20
-6361.0388003028902
 30
0.0
 11
3024.54096002296
 21
-6511.6185256649687
 31
0.0
  0
LINE
  5
4B2
100
AcDbEntity
  8
平面図
370
               5
  6
Continuous
 62
               7
100
AcDbLine
 10
2519.47497226514
 20
-6361.0388003028902
 30
0.0
 11
2519.47497226514
 21
-6511.6185256649687
 31
0.0
  0
LINE
  5
4B3
100
AcDbEntity
  8
平面図
370
               5
  6
Continuous
 62
               7
100
AcDbLine
 10
2519.47497226514
 20
-6059.8840265487297
 30
0.0
 11
2519.47497226514
 21
-5859.1157363692701
 31
0.0
  0
LINE
  5
4B4
100
AcDbEntity
  8
平面図
370
               5
  6
Continuous
 62
               7
100
AcDbLine
 10
2017.5519083315201
 20
-6361.0388003028902
 30
0.0
 11
2017.5519083315201
 21
-6511.6185256649687
 31
0.0
  0
LINE
  5
4B5
100
AcDbEntity
  8
平面図
370
               5
  6
Continuous
 62
               7
100
AcDbLine
 10
2017.5519083315201
 20
-6059.8840265487297
 30
0.0
 11
2017.5519083315201
 21
-5859.1157363692701
 31
0.0
  0
LINE
  5
4B6
100
AcDbEntity
  8
平面図
370
               5
  6
Continuous
 62
               7
100
AcDbLine
 10
1512.48592057369
 20
-6361.0388003028902
 30
0.0
 11
1512.48592057369
 21
-6511.6185256649687
 31
0.0
  0
LINE
  5
4B7
100
AcDbEntity
  8
平面図
370
               5
  6
Continuous
 62
               7
100
AcDbLine
 10
1512.48592057369
 20
-6059.8840265487297
 30
0.0
 11
1512.48592057369
 21
-5859.1157363692701
 31
0.0
  0
LINE
  5
4B8
100
AcDbEntity
  8
平面図
370
               5
  6
Continuous
 62
               7
100
AcDbLine
 10
1010.56285664009
 20
-6361.0388003028902
 30
0.0
 11
1010.56285664009
 21
-6511.6185256649687
 31
0.0
  0
LINE
  5
4B9
100
AcDbEntity
  8
平面図
370
               5
  6
Continuous
 62
               7
100
AcDbLine
 10
1010.56285664009
 20
-6059.8840265487297
 30
0.0
 11
1010.56285664009
 21
-5859.1157363692701
 31
0.0
  0
LINE
  5
4BA
100
AcDbEntity
  8
平面図
370
               5
  6
Continuous
 62
               7
100
AcDbLine
 10
505.49686888226302
 20
-6361.0388003028902
 30
0.0
 11
505.49686888226302
 21
-6511.6185256649687
 31
0.0
  0
LINE
  5
4BB
100
AcDbEntity
  8
平面図
370
               5
  6
Continuous
 62
               7
100
AcDbLine
 10
505.49686888226302
 20
-6059.8840265487297
 30
0.0
 11
505.49686888226302
 21
-5859.1157363692701
 31
0.0
  0
POLYLINE
  5
4BC
100
AcDbEntity
  8
平面図
370
               5
  6
Continuous
 62
               7
100
AcDb2dPolyline
 66
               1
 10
0.0
 20
0.0
 30
0.0
 70
               1
 75
               5
  0
VERTEX
  5
4BD
100
AcDbEntity
  8
平面図
370
               5
  6
Continuous
 62
               7
100
AcDbVertex
100
AcDb2dVertex
 10
9055.1084084407994
 20
-9700.0
 30
0.0
  0
VERTEX
  5
4BE
100
AcDbEntity
  8
平面図
370
               5
  6
Continuous
 62
               7
100
AcDbVertex
100
AcDb2dVertex
 10
16300.0
 20
-9700.0
 30
0.0
  0
VERTEX
  5
4BF
100
AcDbEntity
  8
平面図
370
               5
  6
Continuous
 62
               7
100
AcDbVertex
100
AcDb2dVertex
 10
16300.0
 20
-7236.0139125419
 30
0.0
  0
VERTEX
  5
4C0
100
AcDbEntity
  8
平面図
370
               5
  6
Continuous
 62
               7
100
AcDbVertex
100
AcDb2dVertex
 10
9055.1084084407994
 20
-7236.0139125419
 30
0.0
  0
SEQEND
  5
4C1
100
AcDbEntity
  8
平面図
370
               5
  6
Continuous
 62
               7
  0
MTEXT
  5
4C2
100
AcDbEntity
  8
平面図
 62
               7
100
AcDbMText
 10
-14800.0
 20
10395.054305296431
 30
0.0
 40
162.88411458333334
 41
1546.0611376931993
 71
               1
 72
               1
  1
バック幕(引割)
  7
ＭＳ ゴシック
 73
               1
 44
0.7828267384257843
  0
MTEXT
  5
4C3
100
AcDbEntity
  8
平面図
 62
               7
100
AcDbMText
 10
-14663.257354641511
 20
7263.5750288264799
 30
0.0
 40
162.88411458333334
 41
0.0
 71
               1
 72
               1
  1
一文字幕   4
  7
ＭＳ ゴシック
 73
               1
 44
0.7828267384257843
  0
MTEXT
  5
4C4
100
AcDbEntity
  8
平面図
 62
               7
100
AcDbMText
 10
-14760.0
 20
9908.3333333333339
 30
0.0
 40
162.88411458333334
 41
0.0
 71
               7
 72
               1
  1
バ　ト　ン　7\P
  7
ＭＳ ゴシック
 73
               1
 44
0.7828267384257843
  0
LINE
  5
4C5
100
AcDbEntity
  8
平面図
370
               5
  6
Continuous
 62
               7
100
AcDbLine
 10
12602.740631909895
 20
1942.5443808056468
 30
0.0
 11
14402.740631909895
 21
1942.5443808056468
 31
0.0
  0
SOLID
  5
4C6
100
AcDbEntity
  8
平面図
370
               5
 62
               7
100
AcDbTrace
 10
12602.740631909895
 20
1942.5443808056468
 30
0.0
 11
12702.73452839427
 21
1969.3376646166764
 31
0.0
 12
12702.73452839427
 22
1915.7510969946172
 32
0.0
 13
12702.73452839427
 23
1915.7510969946172
 33
0.0
  0
SOLID
  5
4C7
100
AcDbEntity
  8
平面図
370
               5
 62
               7
100
AcDbTrace
 10
14402.740631909895
 20
1942.5443808056468
 30
0.0
 11
14302.74673542552
 21
1915.7510969946172
 31
0.0
 12
14302.74673542552
 22
1969.3376646166764
 32
0.0
 13
14302.74673542552
 23
1969.3376646166764
 33
0.0
  0
MTEXT
  5
4C8
100
AcDbEntity
  8
平面図
 62
               7
100
AcDbMText
 10
13191.520895522393
 20
2299.5805110739188
 30
0.0
 40
217.17881944444446
 41
720.0
 71
               1
 72
               1
  1
1800
  7
ＭＳ ゴシック (bold)
 73
               1
 44
0.7828267384257843
  0
ENDSEC
  0
SECTION
  2
OBJECTS
  0
DICTIONARY
  5
19
100
AcDbDictionary
280
               0
281
               1
  3
ACAD_GROUP
350
1A
  3
ACAD_MLINESTYLE
350
1B
  3
ACAD_LAYOUT
350
1E
  3
ACAD_PLOTSETTINGS
350
22
  3
ACAD_PLOTSTYLENAME
350
1F
  3
ACAD_WIPEOUT_VARS
350
23
  0
DICTIONARY
  5
1A
102
{ACAD_REACTORS
330
19
102
}
100
AcDbDictionary
280
               0
281
               1
  0
DICTIONARY
  5
1B
102
{ACAD_REACTORS
330
19
102
}
100
AcDbDictionary
280
               0
281
               1
  3
Standard
350
1C
  0
MLINESTYLE
  5
1C
102
{ACAD_REACTORS
330
1B
102
}
100
AcDbMlineStyle
  2
Standard
 70
               0
  3

 62
               0
 51
90.0
 52
90.0
 71
               2
 49
0.5
 62
             256
  6
ByLayer
 49
-0.5
 62
             256
  6
ByLayer
  0
ACDBDICTIONARYWDFLT
  5
1F
102
{ACAD_REACTORS
330
19
102
}
100
AcDbDictionary
281
               1
  3
Normal
350
1D
100
AcDbDictionaryWithDefault
340
1D
  0
ACDBPLACEHOLDER
  5
1D
102
{ACAD_REACTORS
330
1F
102
}
  0
LAYOUT
  5
20
102
{ACAD_REACTORS
330
1E
102
}
100
AcDbPlotSettings
  1

  2

  4

  6

 40
0.0
 41
0.0
 42
0.0
 43
0.0
 44
0.0
 45
0.0
 46
0.0
 47
0.0
 48
0.0
 49
0.0
140
0.0
141
0.0
142
1.0
143
1.0
 70
            1024
 72
               0
 73
               0
 74
               0
  7

 75
               0
147
1.0
148
0.0
149
0.0
100
AcDbLayout
  1
Model
 70
               0
 71
               0
 10
0.0
 20
0.0
 11
0.0
 21
0.0
 12
0.0
 22
0.0
 32
0.0
 14
0.0
 24
0.0
 34
0.0
 15
0.0
 25
0.0
 35
0.0
146
0.0
 13
0.0
 23
0.0
 33
0.0
 16
0.0
 26
0.0
 36
0.0
 17
0.0
 27
0.0
 37
0.0
 76
               0
330
A
331
0
345
0
346
0
  0
LAYOUT
  5
21
102
{ACAD_REACTORS
330
1E
102
}
100
AcDbPlotSettings
  1

  2

  4

  6

 40
0.0
 41
0.0
 42
0.0
 43
0.0
 44
0.0
 45
0.0
 46
0.0
 47
0.0
 48
0.0
 49
0.0
140
0.0
141
0.0
142
1.0
143
1.0
 70
               0
 72
               0
 73
               0
 74
               0
  7

 75
               0
147
1.0
148
0.0
149
0.0
100
AcDbLayout
  1
Layout1
 70
               0
 71
               0
 10
0.0
 20
0.0
 11
0.0
 21
0.0
 12
0.0
 22
0.0
 32
0.0
 14
0.0
 24
0.0
 34
0.0
 15
0.0
 25
0.0
 35
0.0
146
0.0
 13
0.0
 23
0.0
 33
0.0
 16
0.0
 26
0.0
 36
0.0
 17
0.0
 27
0.0
 37
0.0
 76
               0
330
B
331
0
345
0
346
0
  0
DICTIONARY
  5
1E
102
{ACAD_REACTORS
330
19
102
}
100
AcDbDictionary
280
               0
281
               1
  3
Layout1
350
21
  3
Model
350
20
  0
DICTIONARY
  5
22
102
{ACAD_REACTORS
330
19
102
}
100
AcDbDictionary
280
               0
281
               1
  0
WIPEOUTVARIABLES
  5
23
100
AcDbWipeoutVariables
 70
               0
  0
ENDSEC
  0
EOF
